ISO-10303-21;
HEADER;
FILE_DESCRIPTION (( 'STEP AP203' ),
    '1' );
FILE_NAME ('20187-E0W.STEP',
    '2009-09-14T20:48:55',
    ( 'Admin' ),
    ( 'Thorlabs, Inc.' ),
    'SwSTEP 2.0',
    'SolidWorks 2007',
    '' );
FILE_SCHEMA (( 'CONFIG_CONTROL_DESIGN' ));
ENDSEC;

DATA;
#1 = DIRECTION ( 'NONE',  ( 1.000000000000000000, 0.0000000000000000000, 0.0000000000000000000 ) ) ;
#2 = CARTESIAN_POINT ( 'NONE',  ( 0.0000000000000000000, 1.683588815234999900E-014, -138.4999999999996300 ) ) ;
#3 = AXIS2_PLACEMENT_3D ( 'NONE', #2, #1, #45 ) ;
#4 = AXIS2_PLACEMENT_3D ( 'NONE', #7, #17, #16 ) ;
#5 = CYLINDRICAL_SURFACE ( 'NONE', #4, 12.69999999999998900 ) ;
#6 = PLANE ( 'NONE',  #14 ) ;
#7 = CARTESIAN_POINT ( 'NONE',  ( 0.0000000000000000000, 8.547752349680193100E-016, -2.000000000000000000 ) ) ;
#8 = CYLINDRICAL_SURFACE ( 'NONE', #9, 12.69999999999998900 ) ;
#9 = AXIS2_PLACEMENT_3D ( 'NONE', #41, #40, #39 ) ;
#10 = FACE_OUTER_BOUND ( 'NONE', #176, .T. ) ;
#11 = DIRECTION ( 'NONE',  ( 0.0000000000000000000, 1.000000000000000000, 3.061515884555943100E-016 ) ) ;
#12 = DIRECTION ( 'NONE',  ( 0.0000000000000000000, 3.061515884555943100E-016, -1.000000000000000000 ) ) ;
#13 = CARTESIAN_POINT ( 'NONE',  ( 0.0000000000000000000, 8.547752349680199000E-016, -2.000000000000001800 ) ) ;
#14 = AXIS2_PLACEMENT_3D ( 'NONE', #13, #12, #11 ) ;
#15 = FACE_OUTER_BOUND ( 'NONE', #167, .T. ) ;
#16 = DIRECTION ( 'NONE',  ( 0.0000000000000000000, 1.000000000000000000, 3.073328992872298800E-016 ) ) ;
#17 = DIRECTION ( 'NONE',  ( 0.0000000000000000000, 3.061515884555943100E-016, -1.000000000000000000 ) ) ;
#18 = DIRECTION ( 'NONE',  ( 0.0000000000000000000, 1.000000000000000000, 3.073328992872296400E-016 ) ) ;
#19 = DIRECTION ( 'NONE',  ( 0.0000000000000000000, 3.061515884555943100E-016, -1.000000000000000000 ) ) ;
#20 = CARTESIAN_POINT ( 'NONE',  ( 0.0000000000000000000, 8.547752349680204900E-016, -2.000000000000004000 ) ) ;
#21 = AXIS2_PLACEMENT_3D ( 'NONE', #20, #19, #18 ) ;
#22 = CIRCLE ( 'NONE', #21, 12.69999999999999900 ) ;
#23 = DIRECTION ( 'NONE',  ( 0.0000000000000000000, 1.000000000000000000, 3.073328992872300300E-016 ) ) ;
#24 = DIRECTION ( 'NONE',  ( 0.0000000000000000000, 3.061515884555943100E-016, -1.000000000000000000 ) ) ;
#25 = CARTESIAN_POINT ( 'NONE',  ( 0.0000000000000000000, -1.937440424163165800E-016, 1.424836966137178900 ) ) ;
#26 = AXIS2_PLACEMENT_3D ( 'NONE', #25, #24, #23 ) ;
#27 = CIRCLE ( 'NONE', #26, 12.69999999999998200 ) ;
#28 = DIRECTION ( 'NONE',  ( 0.0000000000000000000, 1.000000000000000000, 3.073328992872300300E-016 ) ) ;
#29 = DIRECTION ( 'NONE',  ( 0.0000000000000000000, 3.061515884555943100E-016, -1.000000000000000000 ) ) ;
#30 = CARTESIAN_POINT ( 'NONE',  ( 0.0000000000000000000, -1.937440424163165800E-016, 1.424836966137178900 ) ) ;
#31 = AXIS2_PLACEMENT_3D ( 'NONE', #30, #29, #28 ) ;
#32 = CIRCLE ( 'NONE', #31, 12.69999999999998200 ) ;
#33 = CARTESIAN_POINT ( 'NONE',  ( 0.0000000000000000000, -1.757555039005877100E-014, 2.000000000000251400 ) ) ;
#34 = DIRECTION ( 'NONE',  ( 0.0000000000000000000, 0.0000000000000000000, 1.000000000000000000 ) ) ;
#35 = DIRECTION ( 'NONE',  ( -1.000000000000000000, 0.0000000000000000000, 0.0000000000000000000 ) ) ;
#36 = CARTESIAN_POINT ( 'NONE',  ( 0.0000000000000000000, 1.683588815234999900E-014, -138.4999999999996300 ) ) ;
#37 = AXIS2_PLACEMENT_3D ( 'NONE', #36, #35, #34 ) ;
#38 = CIRCLE ( 'NONE', #37, 140.4999999999998900 ) ;
#39 = DIRECTION ( 'NONE',  ( 0.0000000000000000000, 1.000000000000000000, 3.073328992872298800E-016 ) ) ;
#40 = DIRECTION ( 'NONE',  ( 0.0000000000000000000, 3.061515884555943100E-016, -1.000000000000000000 ) ) ;
#41 = CARTESIAN_POINT ( 'NONE',  ( 0.0000000000000000000, 8.547752349680193100E-016, -2.000000000000000000 ) ) ;
#42 = CIRCLE ( 'NONE', #49, 12.69999999999999900 ) ;
#43 = CARTESIAN_POINT ( 'NONE',  ( 1.555250069354419100E-015, -12.70000000000000100, -2.000000000000008000 ) ) ;
#44 = CARTESIAN_POINT ( 'NONE',  ( 1.555250069354420100E-015, -12.70000000000003300, 1.424836966137178900 ) ) ;
#45 = DIRECTION ( 'NONE',  ( 0.0000000000000000000, 1.000000000000000000, 3.950971617883122900E-016 ) ) ;
#46 = DIRECTION ( 'NONE',  ( 0.0000000000000000000, 1.000000000000000000, 3.073328992872296400E-016 ) ) ;
#47 = DIRECTION ( 'NONE',  ( 0.0000000000000000000, 3.061515884555943100E-016, -1.000000000000000000 ) ) ;
#48 = CARTESIAN_POINT ( 'NONE',  ( 0.0000000000000000000, 8.547752349680204900E-016, -2.000000000000004000 ) ) ;
#49 = AXIS2_PLACEMENT_3D ( 'NONE', #48, #47, #46 ) ;
#50 = SPHERICAL_SURFACE ( 'NONE', #3, 140.4999999999998900 ) ;
#51 = FACE_OUTER_BOUND ( 'NONE', #162, .T. ) ;
#52 = DIRECTION ( 'NONE',  ( -1.224606353822377000E-016, 1.000000000000000000, 0.0000000000000000000 ) ) ;
#53 = DIRECTION ( 'NONE',  ( 1.000000000000000000, 1.224606353822377300E-016, 3.749151804555343600E-032 ) ) ;
#54 = CARTESIAN_POINT ( 'NONE',  ( 0.0000000000000000000, 1.683588815234999900E-014, -138.4999999999996300 ) ) ;
#55 = AXIS2_PLACEMENT_3D ( 'NONE', #54, #53, #52 ) ;
#56 = CIRCLE ( 'NONE', #55, 140.4999999999998900 ) ;
#57 = FACE_OUTER_BOUND ( 'NONE', #174, .T. ) ;
#58 = CARTESIAN_POINT ( 'NONE',  ( 0.0000000000000000000, 12.69999999999998900, -1.999999999999996200 ) ) ;
#59 = APPROVAL ( #60, 'UNSPECIFIED' ) ;
#60 = APPROVAL_STATUS ( 'not_yet_approved' ) ;
#61 = PERSON_AND_ORGANIZATION ( #154, #153 ) ;
#62 = PRODUCT_DEFINITION_FORMATION_WITH_SPECIFIED_SOURCE ( 'ANY', '', #155, .NOT_KNOWN. ) ;
#63 = CC_DESIGN_DATE_AND_TIME_ASSIGNMENT ( #65, #64, ( #120 ) ) ;
#64 = DATE_TIME_ROLE ( 'creation_date' ) ;
#65 = DATE_AND_TIME ( #66, #67 ) ;
#66 = CALENDAR_DATE ( 2009, 14, 9 ) ;
#67 = LOCAL_TIME ( 16, 48, 55.00000000000000000, #68 ) ;
#68 = COORDINATED_UNIVERSAL_TIME_OFFSET ( 5, 0, .BEHIND. ) ;
#69 = CARTESIAN_POINT ( 'NONE',  ( 0.0000000000000000000, 1.683588815234999900E-014, -138.4999999999996300 ) ) ;
#70 = ADVANCED_BREP_SHAPE_REPRESENTATION ( '20187-E0W', ( #165, #151 ), #114 ) ;
#71 = SHAPE_DEFINITION_REPRESENTATION ( #116, #70 ) ;
#72 = CC_DESIGN_PERSON_AND_ORGANIZATION_ASSIGNMENT ( #74, #73, ( #120 ) ) ;
#73 = PERSON_AND_ORGANIZATION_ROLE ( 'creator' ) ;
#74 = PERSON_AND_ORGANIZATION ( #154, #153 ) ;
#75 = CC_DESIGN_APPROVAL ( #83, ( #120 ) ) ;
#76 = APPROVAL_DATE_TIME ( #77, #83 ) ;
#77 = DATE_AND_TIME ( #78, #79 ) ;
#78 = CALENDAR_DATE ( 2009, 14, 9 ) ;
#79 = LOCAL_TIME ( 16, 48, 55.00000000000000000, #80 ) ;
#80 = COORDINATED_UNIVERSAL_TIME_OFFSET ( 5, 0, .BEHIND. ) ;
#81 = APPROVAL_PERSON_ORGANIZATION ( #119, #83, #82 ) ;
#82 = APPROVAL_ROLE ( '' ) ;
#83 = APPROVAL ( #84, 'UNSPECIFIED' ) ;
#84 = APPROVAL_STATUS ( 'not_yet_approved' ) ;
#85 = DIRECTION ( 'NONE',  ( 1.000000000000000000, 0.0000000000000000000, 0.0000000000000000000 ) ) ;
#86 = DIRECTION ( 'NONE',  ( 0.0000000000000000000, 0.0000000000000000000, 1.000000000000000000 ) ) ;
#87 = PERSON_AND_ORGANIZATION ( #154, #153 ) ;
#88 = SECURITY_CLASSIFICATION ( '', '', #89 ) ;
#89 = SECURITY_CLASSIFICATION_LEVEL ( 'unclassified' ) ;
#90 = CC_DESIGN_PERSON_AND_ORGANIZATION_ASSIGNMENT ( #92, #91, ( #62 ) ) ;
#91 = PERSON_AND_ORGANIZATION_ROLE ( 'design_supplier' ) ;
#92 = PERSON_AND_ORGANIZATION ( #154, #153 ) ;
#93 = CC_DESIGN_PERSON_AND_ORGANIZATION_ASSIGNMENT ( #95, #94, ( #62 ) ) ;
#94 = PERSON_AND_ORGANIZATION_ROLE ( 'creator' ) ;
#95 = PERSON_AND_ORGANIZATION ( #154, #153 ) ;
#96 = CC_DESIGN_APPROVAL ( #59, ( #62 ) ) ;
#97 = APPROVAL_DATE_TIME ( #98, #59 ) ;
#98 = DATE_AND_TIME ( #99, #100 ) ;
#99 = CALENDAR_DATE ( 2009, 14, 9 ) ;
#100 = LOCAL_TIME ( 16, 48, 55.00000000000000000, #101 ) ;
#101 = COORDINATED_UNIVERSAL_TIME_OFFSET ( 5, 0, .BEHIND. ) ;
#102 = APPROVAL_PERSON_ORGANIZATION ( #61, #59, #103 ) ;
#103 = APPROVAL_ROLE ( '' ) ;
#104 =( NAMED_UNIT ( * ) SI_UNIT ( $, .STERADIAN. ) SOLID_ANGLE_UNIT ( ) );
#105 =( NAMED_UNIT ( * ) PLANE_ANGLE_UNIT ( ) SI_UNIT ( $, .RADIAN. ) );
#106 = DIRECTION ( 'NONE',  ( 0.0000000000000000000, 3.061515884555943100E-016, -1.000000000000000000 ) ) ;
#107 = CARTESIAN_POINT ( 'NONE',  ( 0.0000000000000000000, 12.70000000000000600, 1.424836966137182900 ) ) ;
#108 = CARTESIAN_POINT ( 'NONE',  ( 0.0000000000000000000, 12.69999999999999900, -2.000000000000000000 ) ) ;
#109 = CARTESIAN_POINT ( 'NONE',  ( 1.555250069354417700E-015, -12.69999999999998900, -2.000000000000004000 ) ) ;
#110 = LINE ( 'NONE', #109, #149 ) ;
#111 = DIRECTION ( 'NONE',  ( 0.0000000000000000000, 1.000000000000000000, 3.950971617883122900E-016 ) ) ;
#112 = DIRECTION ( 'NONE',  ( 1.000000000000000000, 0.0000000000000000000, 0.0000000000000000000 ) ) ;
#113 = FACE_OUTER_BOUND ( 'NONE', #194, .T. ) ;
#114 =( GEOMETRIC_REPRESENTATION_CONTEXT ( 3 ) GLOBAL_UNCERTAINTY_ASSIGNED_CONTEXT ( ( #115 ) ) GLOBAL_UNIT_ASSIGNED_CONTEXT ( ( #146, #105, #104 ) ) REPRESENTATION_CONTEXT ( 'NONE', 'WORKASPACE' ) );
#115 = UNCERTAINTY_MEASURE_WITH_UNIT (LENGTH_MEASURE( 1.000000000000000100E-005 ), #146, 'distance_accuracy_value', 'NONE');
#116 = PRODUCT_DEFINITION_SHAPE ( 'NONE', 'NONE',  #120 ) ;
#117 = PRODUCT_RELATED_PRODUCT_CATEGORY ( 'detail', '', ( #155 ) ) ;
#118 = CC_DESIGN_SECURITY_CLASSIFICATION ( #88, ( #62 ) ) ;
#119 = PERSON_AND_ORGANIZATION ( #154, #153 ) ;
#120 = PRODUCT_DEFINITION ( 'UNKNOWN', '', #62, #121 ) ;
#121 = DESIGN_CONTEXT ( 'detailed design', #123, 'design' ) ;
#122 = APPLICATION_PROTOCOL_DEFINITION ( 'international standard', 'config_control_design', 1994, #123 ) ;
#123 = APPLICATION_CONTEXT ( 'configuration controlled 3d designs of mechanical parts and assemblies' ) ;
#124 = CC_DESIGN_PERSON_AND_ORGANIZATION_ASSIGNMENT ( #126, #125, ( #155 ) ) ;
#125 = PERSON_AND_ORGANIZATION_ROLE ( 'design_owner' ) ;
#126 = PERSON_AND_ORGANIZATION ( #154, #153 ) ;
#127 = CC_DESIGN_APPROVAL ( #135, ( #88 ) ) ;
#128 = APPROVAL_DATE_TIME ( #129, #135 ) ;
#129 = DATE_AND_TIME ( #130, #131 ) ;
#130 = CALENDAR_DATE ( 2009, 14, 9 ) ;
#131 = LOCAL_TIME ( 16, 48, 55.00000000000000000, #132 ) ;
#132 = COORDINATED_UNIVERSAL_TIME_OFFSET ( 5, 0, .BEHIND. ) ;
#133 = APPROVAL_PERSON_ORGANIZATION ( #137, #135, #134 ) ;
#134 = APPROVAL_ROLE ( '' ) ;
#135 = APPROVAL ( #136, 'UNSPECIFIED' ) ;
#136 = APPROVAL_STATUS ( 'not_yet_approved' ) ;
#137 = PERSON_AND_ORGANIZATION ( #154, #153 ) ;
#138 = CC_DESIGN_DATE_AND_TIME_ASSIGNMENT ( #140, #139, ( #88 ) ) ;
#139 = DATE_TIME_ROLE ( 'classification_date' ) ;
#140 = DATE_AND_TIME ( #141, #142 ) ;
#141 = CALENDAR_DATE ( 2009, 14, 9 ) ;
#142 = LOCAL_TIME ( 16, 48, 55.00000000000000000, #143 ) ;
#143 = COORDINATED_UNIVERSAL_TIME_OFFSET ( 5, 0, .BEHIND. ) ;
#144 = CC_DESIGN_PERSON_AND_ORGANIZATION_ASSIGNMENT ( #87, #145, ( #88 ) ) ;
#145 = PERSON_AND_ORGANIZATION_ROLE ( 'classification_officer' ) ;
#146 =( LENGTH_UNIT ( ) NAMED_UNIT ( * ) SI_UNIT ( .MILLI., .METRE. ) );
#147 = SPHERICAL_SURFACE ( 'NONE', #160, 140.4999999999998900 ) ;
#148 = DIRECTION ( 'NONE',  ( 0.0000000000000000000, 3.061515884555943100E-016, -1.000000000000000000 ) ) ;
#149 = VECTOR ( 'NONE', #148, 1000.000000000000000 ) ;
#150 = CARTESIAN_POINT ( 'NONE',  ( 0.0000000000000000000, 0.0000000000000000000, 0.0000000000000000000 ) ) ;
#151 = AXIS2_PLACEMENT_3D ( 'NONE', #150, #86, #85 ) ;
#152 = VECTOR ( 'NONE', #106, 1000.000000000000000 ) ;
#153 = ORGANIZATION ( 'UNSPECIFIED', 'UNSPECIFIED', '' ) ;
#154 = PERSON ( 'UNSPECIFIED', 'UNSPECIFIED', 'UNSPECIFIED', ('UNSPECIFIED'), ('UNSPECIFIED'), ('UNSPECIFIED') ) ;
#155 = PRODUCT ( '20187-E0W', '20187-E0W', '', ( #156 ) ) ;
#156 = MECHANICAL_CONTEXT ( 'NONE', #158, 'mechanical' ) ;
#157 = APPLICATION_PROTOCOL_DEFINITION ( 'international standard', 'config_control_design', 1994, #158 ) ;
#158 = APPLICATION_CONTEXT ( 'configuration controlled 3d designs of mechanical parts and assemblies' ) ;
#159 = LINE ( 'NONE', #58, #152 ) ;
#160 = AXIS2_PLACEMENT_3D ( 'NONE', #69, #112, #111 ) ;
#161 = ADVANCED_FACE ( 'NONE', ( #51 ), #50, .T. ) ;
#162 = EDGE_LOOP ( 'NONE', ( #189, #199, #192 ) ) ;
#163 = VERTEX_POINT ( 'NONE', #44 ) ;
#164 = VERTEX_POINT ( 'NONE', #43 ) ;
#165 = MANIFOLD_SOLID_BREP ( 'NONE', #178 ) ;
#166 = ORIENTED_EDGE ( 'NONE', *, *, #188, .T. ) ;
#167 = EDGE_LOOP ( 'NONE', ( #166, #171 ) ) ;
#168 = EDGE_CURVE ( 'NONE', #164, #196, #42, .T. ) ;
#169 = EDGE_CURVE ( 'NONE', #185, #163, #56, .T. ) ;
#170 = ADVANCED_FACE ( 'NONE', ( #57 ), #5, .T. ) ;
#171 = ORIENTED_EDGE ( 'NONE', *, *, #168, .T. ) ;
#172 = ORIENTED_EDGE ( 'NONE', *, *, #187, .F. ) ;
#173 = ADVANCED_FACE ( 'NONE', ( #15 ), #6, .T. ) ;
#174 = EDGE_LOOP ( 'NONE', ( #191, #190, #200, #195 ) ) ;
#175 = ORIENTED_EDGE ( 'NONE', *, *, #168, .F. ) ;
#176 = EDGE_LOOP ( 'NONE', ( #182, #180, #179, #175 ) ) ;
#177 = ORIENTED_EDGE ( 'NONE', *, *, #169, .T. ) ;
#178 = CLOSED_SHELL ( 'NONE', ( #170, #198, #173, #161, #183 ) ) ;
#179 = ORIENTED_EDGE ( 'NONE', *, *, #193, .T. ) ;
#180 = ORIENTED_EDGE ( 'NONE', *, *, #186, .T. ) ;
#181 = ORIENTED_EDGE ( 'NONE', *, *, #184, .F. ) ;
#182 = ORIENTED_EDGE ( 'NONE', *, *, #201, .F. ) ;
#183 = ADVANCED_FACE ( 'NONE', ( #10 ), #8, .T. ) ;
#184 = EDGE_CURVE ( 'NONE', #185, #197, #38, .T. ) ;
#185 = VERTEX_POINT ( 'NONE', #33 ) ;
#186 = EDGE_CURVE ( 'NONE', #163, #197, #32, .T. ) ;
#187 = EDGE_CURVE ( 'NONE', #197, #163, #27, .T. ) ;
#188 = EDGE_CURVE ( 'NONE', #196, #164, #22, .T. ) ;
#189 = ORIENTED_EDGE ( 'NONE', *, *, #169, .F. ) ;
#190 = ORIENTED_EDGE ( 'NONE', *, *, #201, .T. ) ;
#191 = ORIENTED_EDGE ( 'NONE', *, *, #187, .T. ) ;
#192 = ORIENTED_EDGE ( 'NONE', *, *, #186, .F. ) ;
#193 = EDGE_CURVE ( 'NONE', #197, #196, #159, .T. ) ;
#194 = EDGE_LOOP ( 'NONE', ( #181, #177, #172 ) ) ;
#195 = ORIENTED_EDGE ( 'NONE', *, *, #193, .F. ) ;
#196 = VERTEX_POINT ( 'NONE', #108 ) ;
#197 = VERTEX_POINT ( 'NONE', #107 ) ;
#198 = ADVANCED_FACE ( 'NONE', ( #113 ), #147, .T. ) ;
#199 = ORIENTED_EDGE ( 'NONE', *, *, #184, .T. ) ;
#200 = ORIENTED_EDGE ( 'NONE', *, *, #188, .F. ) ;
#201 = EDGE_CURVE ( 'NONE', #163, #164, #110, .T. ) ;
ENDSEC;
END-ISO-10303-21;
