ISO-10303-21;
HEADER;
FILE_DESCRIPTION (( 'STEP AP203' ),
    '1' );
FILE_NAME ('21989-E0W.STEP',
    '2018-06-01T18:10:26',
    ( 'admin' ),
    ( '' ),
    'SwSTEP 2.0',
    'SolidWorks 2016',
    '' );
FILE_SCHEMA (( 'CONFIG_CONTROL_DESIGN' ));
ENDSEC;

DATA;
#1 = PERSON_AND_ORGANIZATION ( #217, #88 ) ;
#2 = VECTOR ( 'NONE', #146, 39.37007874015748100 ) ;
#3 = CARTESIAN_POINT ( 'NONE',  ( 0.0000000000000000000, 0.0000000000000000000, 0.6641672685092977500 ) ) ;
#4 = AXIS2_PLACEMENT_3D ( 'NONE', #122, #294, #195 ) ;
#5 = EDGE_CURVE ( 'NONE', #31, #139, #86, .T. ) ;
#6 = CYLINDRICAL_SURFACE ( 'NONE', #324, 0.5000000000000000000 ) ;
#7 = FACE_OUTER_BOUND ( 'NONE', #320, .T. ) ;
#8 = CIRCLE ( 'NONE', #305, 0.4944322300693972400 ) ;
#9 = LINE ( 'NONE', #284, #52 ) ;
#10 = CARTESIAN_POINT ( 'NONE',  ( 0.0000000000000000000, -0.5000000000000000000, 0.03424600866677787000 ) ) ;
#11 = CARTESIAN_POINT ( 'NONE',  ( 0.0000000000000000000, 9.642410481573932200E-017, -0.1232343062938520800 ) ) ;
#12 = AXIS2_PLACEMENT_3D ( 'NONE', #188, #224, #59 ) ;
#13 = CARTESIAN_POINT ( 'NONE',  ( 0.0000000000000000000, -0.5000000000000000000, 0.1156327564400662900 ) ) ;
#14 = SPHERICAL_SURFACE ( 'NONE', #325, 1.449173228346456500 ) ;
#15 = DATE_TIME_ROLE ( 'classification_date' ) ;
#16 = SPHERICAL_SURFACE ( 'NONE', #266, 0.7874015748031497600 ) ;
#17 = VERTEX_POINT ( 'NONE', #72 ) ;
#18 = AXIS2_PLACEMENT_3D ( 'NONE', #108, #79, #182 ) ;
#19 = PERSON_AND_ORGANIZATION ( #217, #88 ) ;
#20 = APPROVAL_DATE_TIME ( #25, #73 ) ;
#21 = VERTEX_POINT ( 'NONE', #166 ) ;
#22 = CIRCLE ( 'NONE', #227, 0.5000000000000000000 ) ;
#23 = EDGE_CURVE ( 'NONE', #308, #118, #22, .T. ) ;
#24 = EDGE_CURVE ( 'NONE', #139, #21, #273, .T. ) ;
#25 = DATE_AND_TIME ( #124, #225 ) ;
#26 = APPLICATION_CONTEXT ( 'configuration controlled 3d designs of mechanical parts and assemblies' ) ;
#27 = DIRECTION ( 'NONE',  ( 0.0000000000000000000, 1.000000000000000000, 1.885107963787994700E-016 ) ) ;
#28 = PRODUCT_DEFINITION_SHAPE ( 'NONE', 'NONE',  #147 ) ;
#29 = EDGE_CURVE ( 'NONE', #21, #139, #208, .T. ) ;
#30 = FACE_OUTER_BOUND ( 'NONE', #129, .T. ) ;
#31 = VERTEX_POINT ( 'NONE', #257 ) ;
#32 =( LENGTH_UNIT ( ) NAMED_UNIT ( * ) SI_UNIT ( $, .METRE. ) );
#33 =( GEOMETRIC_REPRESENTATION_CONTEXT ( 3 ) GLOBAL_UNCERTAINTY_ASSIGNED_CONTEXT ( ( #326 ) ) GLOBAL_UNIT_ASSIGNED_CONTEXT ( ( #244, #157, #56 ) ) REPRESENTATION_CONTEXT ( 'NONE', 'WORKASPACE' ) );
#34 = CARTESIAN_POINT ( 'NONE',  ( 0.0000000000000000000, 0.5000000000000000000, 0.1156327564400664700 ) ) ;
#35 = ORIENTED_EDGE ( 'NONE', *, *, #306, .F. ) ;
#36 = AXIS2_PLACEMENT_3D ( 'NONE', #87, #78, #313 ) ;
#37 = CIRCLE ( 'NONE', #36, 1.449173228346456500 ) ;
#38 = EDGE_CURVE ( 'NONE', #196, #300, #117, .T. ) ;
#39 = EDGE_LOOP ( 'NONE', ( #312, #68, #322, #230 ) ) ;
#40 = EDGE_LOOP ( 'NONE', ( #311, #155, #132 ) ) ;
#41 = CARTESIAN_POINT ( 'NONE',  ( 0.0000000000000000000, 0.0000000000000000000, 0.6641672685092977500 ) ) ;
#42 = PERSON_AND_ORGANIZATION ( #217, #88 ) ;
#43 = PERSON_AND_ORGANIZATION ( #217, #88 ) ;
#44 = DATE_AND_TIME ( #45, #48 ) ;
#45 = CALENDAR_DATE ( 2018, 1, 6 ) ;
#46 = EDGE_CURVE ( 'NONE', #216, #21, #211, .T. ) ;
#47 = ADVANCED_FACE ( 'NONE', ( #241 ), #302, .F. ) ;
#48 = LOCAL_TIME ( 14, 10, 26.00000000000000000, #49 ) ;
#49 = COORDINATED_UNIVERSAL_TIME_OFFSET ( 5, 0, .BEHIND. ) ;
#50 = PERSON_AND_ORGANIZATION ( #217, #88 ) ;
#51 = APPROVAL_PERSON_ORGANIZATION ( #133, #152, #242 ) ;
#52 = VECTOR ( 'NONE', #303, 39.37007874015748100 ) ;
#53 = PERSON_AND_ORGANIZATION ( #217, #88 ) ;
#54 = PRODUCT_DEFINITION_FORMATION_WITH_SPECIFIED_SOURCE ( 'ANY', '', #174, .NOT_KNOWN. ) ;
#55 = APPROVAL_PERSON_ORGANIZATION ( #53, #200, #91 ) ;
#56 =( NAMED_UNIT ( * ) SI_UNIT ( $, .STERADIAN. ) SOLID_ANGLE_UNIT ( ) );
#57 = PERSON_AND_ORGANIZATION_ROLE ( 'creator' ) ;
#58 = EDGE_CURVE ( 'NONE', #316, #308, #95, .T. ) ;
#59 = DIRECTION ( 'NONE',  ( 0.0000000000000000000, -1.000000000000000000, -1.878145495644180800E-016 ) ) ;
#60 = DIRECTION ( 'NONE',  ( -0.0000000000000000000, -1.836909530733565900E-016, 1.000000000000000000 ) ) ;
#61 = DIRECTION ( 'NONE',  ( -0.0000000000000000000, -1.836909530733565900E-016, 1.000000000000000000 ) ) ;
#62 = EDGE_CURVE ( 'NONE', #316, #300, #243, .T. ) ;
#63 = FACE_OUTER_BOUND ( 'NONE', #183, .T. ) ;
#64 = CC_DESIGN_DATE_AND_TIME_ASSIGNMENT ( #261, #15, ( #282 ) ) ;
#65 = CARTESIAN_POINT ( 'NONE',  ( 0.0000000000000000000, -1.495000926601622800E-017, 0.1156327564400663900 ) ) ;
#66 = EDGE_CURVE ( 'NONE', #118, #308, #111, .T. ) ;
#67 = DIRECTION ( 'NONE',  ( -1.000000000000000000, 0.0000000000000000000, 0.0000000000000000000 ) ) ;
#68 = ORIENTED_EDGE ( 'NONE', *, *, #259, .F. ) ;
#69 = LOCAL_TIME ( 14, 10, 26.00000000000000000, #328 ) ;
#70 = CARTESIAN_POINT ( 'NONE',  ( 6.123233995736766000E-017, -0.5000000000000000000, 0.1156327564400662900 ) ) ;
#71 = LOCAL_TIME ( 14, 10, 26.00000000000000000, #272 ) ;
#72 = CARTESIAN_POINT ( 'NONE',  ( 0.0000000000000000000, 3.549362792585798400E-016, 0.03424600866677811300 ) ) ;
#73 = APPROVAL ( #106, 'UNSPECIFIED' ) ;
#74 = DIRECTION ( 'NONE',  ( 0.0000000000000000000, -1.000000000000000000, -1.899295172748516300E-016 ) ) ;
#75 = LENGTH_MEASURE_WITH_UNIT ( LENGTH_MEASURE( 0.02539999999999999900 ), #32 );
#76 = CLOSED_SHELL ( 'NONE', ( #105, #278, #247, #275, #103, #47, #149, #123, #301, #299 ) ) ;
#77 = CIRCLE ( 'NONE', #252, 0.4944322300693974600 ) ;
#78 = DIRECTION ( 'NONE',  ( -1.000000000000000000, 1.224646799147353200E-016, 2.249565377136128000E-032 ) ) ;
#79 = DIRECTION ( 'NONE',  ( -0.0000000000000000000, -1.836909530733565900E-016, 1.000000000000000000 ) ) ;
#80 = CARTESIAN_POINT ( 'NONE',  ( 0.0000000000000000000, -0.4944322300693974000, 0.05135570703947452100 ) ) ;
#81 = DIMENSIONAL_EXPONENTS ( 1.000000000000000000, 0.0000000000000000000, 0.0000000000000000000, 0.0000000000000000000, 0.0000000000000000000, 0.0000000000000000000, 0.0000000000000000000 ) ;
#82 = DIRECTION ( 'NONE',  ( 0.0000000000000000000, -1.000000000000000000, -1.707404996040164500E-016 ) ) ;
#83 = CIRCLE ( 'NONE', #250, 0.7874015748031497600 ) ;
#84 = ORIENTED_EDGE ( 'NONE', *, *, #144, .T. ) ;
#85 = ORIENTED_EDGE ( 'NONE', *, *, #46, .F. ) ;
#86 = LINE ( 'NONE', #70, #205 ) ;
#87 = CARTESIAN_POINT ( 'NONE',  ( 0.0000000000000000000, 0.0000000000000000000, 1.483419237013234600 ) ) ;
#88 = ORGANIZATION ( 'UNSPECIFIED', 'UNSPECIFIED', '' ) ;
#89 = DATE_AND_TIME ( #138, #69 ) ;
#90 = PERSON_AND_ORGANIZATION ( #217, #88 ) ;
#91 = APPROVAL_ROLE ( '' ) ;
#92 = LINE ( 'NONE', #10, #126 ) ;
#93 = EDGE_CURVE ( 'NONE', #17, #31, #37, .T. ) ;
#94 = DIRECTION ( 'NONE',  ( 1.000000000000000000, -1.224646799147353200E-016, -2.249565377136128000E-032 ) ) ;
#95 = LINE ( 'NONE', #295, #213 ) ;
#96 = CARTESIAN_POINT ( 'NONE',  ( 0.0000000000000000000, -1.495000926601622800E-017, 0.1156327564400663900 ) ) ;
#97 = CONICAL_SURFACE ( 'NONE', #18, 0.4944322300693974600, 0.7853981633974130800 ) ;
#98 = DIRECTION ( 'NONE',  ( -0.0000000000000000000, -1.836909530733565900E-016, 1.000000000000000000 ) ) ;
#99 = DIRECTION ( 'NONE',  ( 0.0000000000000000000, 1.000000000000000000, 1.885107963787994700E-016 ) ) ;
#100 = LOCAL_TIME ( 14, 10, 26.00000000000000000, #309 ) ;
#101 = CARTESIAN_POINT ( 'NONE',  ( 0.0000000000000000000, -1.495000926601622800E-017, 0.1156327564400663900 ) ) ;
#102 = DIRECTION ( 'NONE',  ( 0.0000000000000000000, -1.000000000000000000, -1.734723475976806800E-016 ) ) ;
#103 = ADVANCED_FACE ( 'NONE', ( #63 ), #14, .F. ) ;
#104 = ORIENTED_EDGE ( 'NONE', *, *, #184, .F. ) ;
#105 = ADVANCED_FACE ( 'NONE', ( #236 ), #115, .T. ) ;
#106 = APPROVAL_STATUS ( 'not_yet_approved' ) ;
#107 = DIRECTION ( 'NONE',  ( 0.0000000000000000000, -1.000000000000000000, -1.878145495644180800E-016 ) ) ;
#108 = CARTESIAN_POINT ( 'NONE',  ( 0.0000000000000000000, -3.142896800878301000E-018, 0.05135570703947459100 ) ) ;
#109 = CARTESIAN_POINT ( 'NONE',  ( 0.0000000000000000000, -4.165645765923933100E-018, 0.05692347697007752600 ) ) ;
#110 = COORDINATED_UNIVERSAL_TIME_OFFSET ( 5, 0, .BEHIND. ) ;
#111 = CIRCLE ( 'NONE', #12, 0.5000000000000000000 ) ;
#112 = CC_DESIGN_APPROVAL ( #152, ( #147 ) ) ;
#113 = AXIS2_PLACEMENT_3D ( 'NONE', #292, #260, #170 ) ;
#114 = DIRECTION ( 'NONE',  ( 0.0000000000000000000, 0.0000000000000000000, -1.000000000000000000 ) ) ;
#115 = CONICAL_SURFACE ( 'NONE', #191, 0.5000000000000000000, 0.7853981633974482800 ) ;
#116 = CARTESIAN_POINT ( 'NONE',  ( 0.0000000000000000000, -1.597275823106182200E-017, 0.1212005263706691200 ) ) ;
#117 = CIRCLE ( 'NONE', #4, 0.7874015748031496500 ) ;
#118 = VERTEX_POINT ( 'NONE', #197 ) ;
#119 = DIRECTION ( 'NONE',  ( 0.0000000000000000000, 0.7071067811865475700, -0.7071067811865474600 ) ) ;
#120 = DIRECTION ( 'NONE',  ( 0.0000000000000000000, -1.000000000000000000, -1.707404996040164500E-016 ) ) ;
#121 = SPHERICAL_SURFACE ( 'NONE', #315, 0.7874015748031497600 ) ;
#122 = CARTESIAN_POINT ( 'NONE',  ( 0.0000000000000000000, 0.0000000000000000000, 0.6641672685092977500 ) ) ;
#123 = ADVANCED_FACE ( 'NONE', ( #214 ), #97, .T. ) ;
#124 = CALENDAR_DATE ( 2018, 1, 6 ) ;
#125 = ORIENTED_EDGE ( 'NONE', *, *, #161, .F. ) ;
#126 = VECTOR ( 'NONE', #268, 39.37007874015748100 ) ;
#127 = DIRECTION ( 'NONE',  ( -0.0000000000000000000, -1.836909530733565900E-016, 1.000000000000000000 ) ) ;
#128 = CC_DESIGN_APPROVAL ( #200, ( #282 ) ) ;
#129 = EDGE_LOOP ( 'NONE', ( #207, #296, #287, #125 ) ) ;
#130 = EDGE_LOOP ( 'NONE', ( #104, #323, #198, #85 ) ) ;
#131 = PERSON_AND_ORGANIZATION_ROLE ( 'classification_officer' ) ;
#132 = ORIENTED_EDGE ( 'NONE', *, *, #259, .T. ) ;
#133 = PERSON_AND_ORGANIZATION ( #217, #88 ) ;
#134 = DIRECTION ( 'NONE',  ( 8.659560562354627200E-017, 0.7071067811865224800, 0.7071067811865725500 ) ) ;
#135 = CC_DESIGN_PERSON_AND_ORGANIZATION_ASSIGNMENT ( #19, #131, ( #282 ) ) ;
#136 = ADVANCED_BREP_SHAPE_REPRESENTATION ( '21989-E0W', ( #228, #154 ), #33 ) ;
#137 = MECHANICAL_CONTEXT ( 'NONE', #256, 'mechanical' ) ;
#138 = CALENDAR_DATE ( 2018, 1, 6 ) ;
#139 = VERTEX_POINT ( 'NONE', #13 ) ;
#140 = DIRECTION ( 'NONE',  ( 0.0000000000000000000, 1.000000000000000000, 1.707404996040164500E-016 ) ) ;
#141 = AXIS2_PLACEMENT_3D ( 'NONE', #318, #127, #120 ) ;
#142 = CC_DESIGN_PERSON_AND_ORGANIZATION_ASSIGNMENT ( #90, #190, ( #174 ) ) ;
#143 = DIRECTION ( 'NONE',  ( -0.0000000000000000000, -1.836909530733565900E-016, 1.000000000000000000 ) ) ;
#144 = EDGE_CURVE ( 'NONE', #118, #139, #92, .T. ) ;
#145 = DIRECTION ( 'NONE',  ( 8.659560562354931600E-017, -0.7071067811865473500, -0.7071067811865476800 ) ) ;
#146 = DIRECTION ( 'NONE',  ( 0.0000000000000000000, -0.7071067811865227000, 0.7071067811865723300 ) ) ;
#147 = PRODUCT_DEFINITION ( 'UNKNOWN', '', #54, #177 ) ;
#148 = EDGE_CURVE ( 'NONE', #300, #316, #77, .T. ) ;
#149 = ADVANCED_FACE ( 'NONE', ( #193 ), #16, .T. ) ;
#150 = AXIS2_PLACEMENT_3D ( 'NONE', #65, #162, #82 ) ;
#151 = ORIENTED_EDGE ( 'NONE', *, *, #24, .F. ) ;
#152 = APPROVAL ( #285, 'UNSPECIFIED' ) ;
#153 = CARTESIAN_POINT ( 'NONE',  ( 0.0000000000000000000, 0.0000000000000000000, 0.6641672685092977500 ) ) ;
#154 = AXIS2_PLACEMENT_3D ( 'NONE', #239, #251, #288 ) ;
#155 = ORIENTED_EDGE ( 'NONE', *, *, #218, .T. ) ;
#156 = PRODUCT_RELATED_PRODUCT_CATEGORY ( 'detail', '', ( #174 ) ) ;
#157 =( NAMED_UNIT ( * ) PLANE_ANGLE_UNIT ( ) SI_UNIT ( $, .RADIAN. ) );
#158 = EDGE_LOOP ( 'NONE', ( #35, #192, #289 ) ) ;
#159 = ORIENTED_EDGE ( 'NONE', *, *, #184, .T. ) ;
#160 = CC_DESIGN_PERSON_AND_ORGANIZATION_ASSIGNMENT ( #43, #222, ( #54 ) ) ;
#161 = EDGE_CURVE ( 'NONE', #300, #118, #314, .T. ) ;
#162 = DIRECTION ( 'NONE',  ( -0.0000000000000000000, -1.836909530733565900E-016, 1.000000000000000000 ) ) ;
#163 = FACE_OUTER_BOUND ( 'NONE', #201, .T. ) ;
#164 = ORIENTED_EDGE ( 'NONE', *, *, #144, .F. ) ;
#165 = CIRCLE ( 'NONE', #255, 1.449173228346456500 ) ;
#166 = CARTESIAN_POINT ( 'NONE',  ( 6.123233995736766000E-017, 0.5000000000000000000, 0.1156327564400664700 ) ) ;
#167 = CC_DESIGN_PERSON_AND_ORGANIZATION_ASSIGNMENT ( #42, #57, ( #54 ) ) ;
#168 = DIRECTION ( 'NONE',  ( 0.0000000000000000000, -1.000000000000000000, -1.734723475976806800E-016 ) ) ;
#169 = AXIS2_PLACEMENT_3D ( 'NONE', #176, #67, #27 ) ;
#170 = DIRECTION ( 'NONE',  ( 0.0000000000000000000, -1.000000000000000000, -1.899295172748516300E-016 ) ) ;
#171 = CONICAL_SURFACE ( 'NONE', #297, 0.4944322300693974600, 0.7853981633974130800 ) ;
#172 = ORIENTED_EDGE ( 'NONE', *, *, #23, .F. ) ;
#173 = CC_DESIGN_SECURITY_CLASSIFICATION ( #282, ( #54 ) ) ;
#174 = PRODUCT ( '21989-E0W', '21989-E0W', '', ( #137 ) ) ;
#175 = CARTESIAN_POINT ( 'NONE',  ( 6.123233995736766000E-017, 0.5000000000000000000, 0.05692347697007761600 ) ) ;
#176 = CARTESIAN_POINT ( 'NONE',  ( 0.0000000000000000000, 0.0000000000000000000, 1.483419237013234600 ) ) ;
#177 = DESIGN_CONTEXT ( 'detailed design', #26, 'design' ) ;
#178 = DIRECTION ( 'NONE',  ( 0.0000000000000000000, -1.000000000000000000, -1.726631975225924800E-016 ) ) ;
#179 = ORIENTED_EDGE ( 'NONE', *, *, #62, .T. ) ;
#180 = EDGE_LOOP ( 'NONE', ( #264, #327, #321 ) ) ;
#181 = DIRECTION ( 'NONE',  ( 0.0000000000000000000, 1.836909530733565900E-016, -1.000000000000000000 ) ) ;
#182 = DIRECTION ( 'NONE',  ( 0.0000000000000000000, -1.000000000000000000, -1.899295172748516300E-016 ) ) ;
#183 = EDGE_LOOP ( 'NONE', ( #231, #221, #159 ) ) ;
#184 = EDGE_CURVE ( 'NONE', #31, #216, #329, .T. ) ;
#185 = SHAPE_DEFINITION_REPRESENTATION ( #28, #136 ) ;
#186 = PERSON_AND_ORGANIZATION_ROLE ( 'creator' ) ;
#187 = APPROVAL_DATE_TIME ( #233, #200 ) ;
#188 = CARTESIAN_POINT ( 'NONE',  ( 0.0000000000000000000, -4.165645765923933100E-018, 0.05692347697007752600 ) ) ;
#189 = ORIENTED_EDGE ( 'NONE', *, *, #29, .F. ) ;
#190 = PERSON_AND_ORGANIZATION_ROLE ( 'design_owner' ) ;
#191 = AXIS2_PLACEMENT_3D ( 'NONE', #96, #181, #307 ) ;
#192 = ORIENTED_EDGE ( 'NONE', *, *, #38, .T. ) ;
#193 = FACE_OUTER_BOUND ( 'NONE', #158, .T. ) ;
#194 = CARTESIAN_POINT ( 'NONE',  ( 0.0000000000000000000, 0.0000000000000000000, 0.03424600866677796100 ) ) ;
#195 = DIRECTION ( 'NONE',  ( 0.0000000000000000000, 0.0000000000000000000, 1.000000000000000000 ) ) ;
#196 = VERTEX_POINT ( 'NONE', #11 ) ;
#197 = CARTESIAN_POINT ( 'NONE',  ( 0.0000000000000000000, -0.5000000000000000000, 0.05692347697007742900 ) ) ;
#198 = ORIENTED_EDGE ( 'NONE', *, *, #24, .T. ) ;
#199 = ORIENTED_EDGE ( 'NONE', *, *, #23, .T. ) ;
#200 = APPROVAL ( #280, 'UNSPECIFIED' ) ;
#201 = EDGE_LOOP ( 'NONE', ( #293, #199, #84, #189 ) ) ;
#202 = CYLINDRICAL_SURFACE ( 'NONE', #290, 0.5000000000000000000 ) ;
#203 = DIRECTION ( 'NONE',  ( 1.000000000000000000, 0.0000000000000000000, 0.0000000000000000000 ) ) ;
#204 = APPROVAL_ROLE ( '' ) ;
#205 = VECTOR ( 'NONE', #145, 39.37007874015748100 ) ;
#206 = DIRECTION ( 'NONE',  ( 0.0000000000000000000, -1.000000000000000000, -1.878145495644180800E-016 ) ) ;
#207 = ORIENTED_EDGE ( 'NONE', *, *, #148, .T. ) ;
#208 = CIRCLE ( 'NONE', #141, 0.5000000000000000000 ) ;
#209 = CC_DESIGN_PERSON_AND_ORGANIZATION_ASSIGNMENT ( #50, #186, ( #147 ) ) ;
#210 = DIRECTION ( 'NONE',  ( 1.000000000000000000, 0.0000000000000000000, 0.0000000000000000000 ) ) ;
#211 = LINE ( 'NONE', #34, #237 ) ;
#212 = CARTESIAN_POINT ( 'NONE',  ( 0.0000000000000000000, 0.0000000000000000000, 0.03424600866677796100 ) ) ;
#213 = VECTOR ( 'NONE', #134, 39.37007874015748100 ) ;
#214 = FACE_OUTER_BOUND ( 'NONE', #232, .T. ) ;
#215 = DIRECTION ( 'NONE',  ( -0.0000000000000000000, -1.836909530733565900E-016, 1.000000000000000000 ) ) ;
#216 = VERTEX_POINT ( 'NONE', #279 ) ;
#217 = PERSON ( 'UNSPECIFIED', 'UNSPECIFIED', 'UNSPECIFIED', ('UNSPECIFIED'), ('UNSPECIFIED'), ('UNSPECIFIED') ) ;
#218 = EDGE_CURVE ( 'NONE', #17, #216, #165, .T. ) ;
#219 = CC_DESIGN_APPROVAL ( #73, ( #54 ) ) ;
#220 = DIRECTION ( 'NONE',  ( -1.000000000000000000, 0.0000000000000000000, 0.0000000000000000000 ) ) ;
#221 = ORIENTED_EDGE ( 'NONE', *, *, #93, .T. ) ;
#222 = PERSON_AND_ORGANIZATION_ROLE ( 'design_supplier' ) ;
#223 = CARTESIAN_POINT ( 'NONE',  ( 0.0000000000000000000, -3.142896800878301000E-018, 0.05135570703947459100 ) ) ;
#224 = DIRECTION ( 'NONE',  ( -0.0000000000000000000, -1.836909530733565900E-016, 1.000000000000000000 ) ) ;
#225 = LOCAL_TIME ( 14, 10, 26.00000000000000000, #110 ) ;
#226 = ORIENTED_EDGE ( 'NONE', *, *, #58, .F. ) ;
#227 = AXIS2_PLACEMENT_3D ( 'NONE', #109, #60, #107 ) ;
#228 = MANIFOLD_SOLID_BREP ( '21989-001-1-solid1', #76 ) ;
#229 = CARTESIAN_POINT ( 'NONE',  ( 0.0000000000000000000, -3.142896800878301000E-018, 0.05135570703947459100 ) ) ;
#230 = ORIENTED_EDGE ( 'NONE', *, *, #29, .T. ) ;
#231 = ORIENTED_EDGE ( 'NONE', *, *, #218, .F. ) ;
#232 = EDGE_LOOP ( 'NONE', ( #226, #179, #281, #172 ) ) ;
#233 = DATE_AND_TIME ( #249, #100 ) ;
#234 = CONICAL_SURFACE ( 'NONE', #269, 0.5000000000000000000, 0.7853981633974482800 ) ;
#235 = CARTESIAN_POINT ( 'NONE',  ( 0.0000000000000000000, -1.597275823106182200E-017, 0.1212005263706691200 ) ) ;
#236 = FACE_OUTER_BOUND ( 'NONE', #130, .T. ) ;
#237 = VECTOR ( 'NONE', #119, 39.37007874015748100 ) ;
#238 = DIRECTION ( 'NONE',  ( 0.0000000000000000000, -1.000000000000000000, -1.726631975225924800E-016 ) ) ;
#239 = CARTESIAN_POINT ( 'NONE',  ( 0.0000000000000000000, 0.0000000000000000000, 0.0000000000000000000 ) ) ;
#240 = APPROVAL_DATE_TIME ( #44, #152 ) ;
#241 = FACE_OUTER_BOUND ( 'NONE', #40, .T. ) ;
#242 = APPROVAL_ROLE ( '' ) ;
#243 = CIRCLE ( 'NONE', #113, 0.4944322300693974600 ) ;
#244 =( CONVERSION_BASED_UNIT ( 'INCH', #75 ) LENGTH_UNIT ( ) NAMED_UNIT ( #81 ) );
#245 = CARTESIAN_POINT ( 'NONE',  ( 6.055048479497752000E-017, 0.4944322300693975200, 0.05135570703947472900 ) ) ;
#246 = DIRECTION ( 'NONE',  ( 0.0000000000000000000, -1.000000000000000000, -1.878145495644180800E-016 ) ) ;
#247 = ADVANCED_FACE ( 'NONE', ( #30 ), #171, .T. ) ;
#248 = DIRECTION ( 'NONE',  ( -0.0000000000000000000, -1.836909530733565900E-016, 1.000000000000000000 ) ) ;
#249 = CALENDAR_DATE ( 2018, 1, 6 ) ;
#250 = AXIS2_PLACEMENT_3D ( 'NONE', #153, #94, #276 ) ;
#251 = DIRECTION ( 'NONE',  ( 0.0000000000000000000, 0.0000000000000000000, 1.000000000000000000 ) ) ;
#252 = AXIS2_PLACEMENT_3D ( 'NONE', #229, #248, #291 ) ;
#253 = APPLICATION_PROTOCOL_DEFINITION ( 'international standard', 'config_control_design', 1994, #26 ) ;
#254 = CALENDAR_DATE ( 2018, 1, 6 ) ;
#255 = AXIS2_PLACEMENT_3D ( 'NONE', #310, #267, #114 ) ;
#256 = APPLICATION_CONTEXT ( 'configuration controlled 3d designs of mechanical parts and assemblies' ) ;
#257 = CARTESIAN_POINT ( 'NONE',  ( -6.055048479497752000E-017, -0.4944322300693971300, 0.1212005263706690300 ) ) ;
#258 = SECURITY_CLASSIFICATION_LEVEL ( 'unclassified' ) ;
#259 = EDGE_CURVE ( 'NONE', #216, #31, #8, .T. ) ;
#260 = DIRECTION ( 'NONE',  ( -0.0000000000000000000, -1.836909530733565900E-016, 1.000000000000000000 ) ) ;
#261 = DATE_AND_TIME ( #254, #71 ) ;
#262 = AXIS2_PLACEMENT_3D ( 'NONE', #116, #215, #178 ) ;
#263 = DATE_TIME_ROLE ( 'creation_date' ) ;
#264 = ORIENTED_EDGE ( 'NONE', *, *, #38, .F. ) ;
#265 = CARTESIAN_POINT ( 'NONE',  ( 0.0000000000000000000, 0.0000000000000000000, 1.483419237013234600 ) ) ;
#266 = AXIS2_PLACEMENT_3D ( 'NONE', #3, #203, #102 ) ;
#267 = DIRECTION ( 'NONE',  ( 1.000000000000000000, 0.0000000000000000000, 0.0000000000000000000 ) ) ;
#268 = DIRECTION ( 'NONE',  ( -0.0000000000000000000, -1.836909530733566100E-016, 1.000000000000000000 ) ) ;
#269 = AXIS2_PLACEMENT_3D ( 'NONE', #101, #277, #140 ) ;
#270 = EDGE_CURVE ( 'NONE', #308, #21, #9, .T. ) ;
#271 = APPROVAL_PERSON_ORGANIZATION ( #1, #73, #204 ) ;
#272 = COORDINATED_UNIVERSAL_TIME_OFFSET ( 5, 0, .BEHIND. ) ;
#273 = CIRCLE ( 'NONE', #150, 0.5000000000000000000 ) ;
#274 = APPLICATION_PROTOCOL_DEFINITION ( 'international standard', 'config_control_design', 1994, #256 ) ;
#275 = ADVANCED_FACE ( 'NONE', ( #304 ), #121, .T. ) ;
#276 = DIRECTION ( 'NONE',  ( 1.224646799147353200E-016, 1.000000000000000000, 0.0000000000000000000 ) ) ;
#277 = DIRECTION ( 'NONE',  ( 0.0000000000000000000, 1.836909530733565900E-016, -1.000000000000000000 ) ) ;
#278 = ADVANCED_FACE ( 'NONE', ( #7 ), #6, .T. ) ;
#279 = CARTESIAN_POINT ( 'NONE',  ( 0.0000000000000000000, 0.4944322300693972900, 0.1212005263706691100 ) ) ;
#280 = APPROVAL_STATUS ( 'not_yet_approved' ) ;
#281 = ORIENTED_EDGE ( 'NONE', *, *, #161, .T. ) ;
#282 = SECURITY_CLASSIFICATION ( '', '', #258 ) ;
#283 = DIRECTION ( 'NONE',  ( -0.0000000000000000000, -1.836909530733565900E-016, 1.000000000000000000 ) ) ;
#284 = CARTESIAN_POINT ( 'NONE',  ( 6.123233995736766000E-017, 0.5000000000000000000, 0.03424600866677805800 ) ) ;
#285 = APPROVAL_STATUS ( 'not_yet_approved' ) ;
#286 = ORIENTED_EDGE ( 'NONE', *, *, #66, .T. ) ;
#287 = ORIENTED_EDGE ( 'NONE', *, *, #66, .F. ) ;
#288 = DIRECTION ( 'NONE',  ( 1.000000000000000000, 0.0000000000000000000, 0.0000000000000000000 ) ) ;
#289 = ORIENTED_EDGE ( 'NONE', *, *, #62, .F. ) ;
#290 = AXIS2_PLACEMENT_3D ( 'NONE', #194, #143, #246 ) ;
#291 = DIRECTION ( 'NONE',  ( 0.0000000000000000000, -1.000000000000000000, -1.899295172748516300E-016 ) ) ;
#292 = CARTESIAN_POINT ( 'NONE',  ( 0.0000000000000000000, -3.142896800878301000E-018, 0.05135570703947459100 ) ) ;
#293 = ORIENTED_EDGE ( 'NONE', *, *, #270, .F. ) ;
#294 = DIRECTION ( 'NONE',  ( -1.000000000000000000, 0.0000000000000000000, -0.0000000000000000000 ) ) ;
#295 = CARTESIAN_POINT ( 'NONE',  ( 6.055048479497753200E-017, 0.4944322300693974600, 0.05135570703947468800 ) ) ;
#296 = ORIENTED_EDGE ( 'NONE', *, *, #58, .T. ) ;
#297 = AXIS2_PLACEMENT_3D ( 'NONE', #223, #98, #74 ) ;
#298 = CARTESIAN_POINT ( 'NONE',  ( 0.0000000000000000000, -0.4944322300693974600, 0.05135570703947450000 ) ) ;
#299 = ADVANCED_FACE ( 'NONE', ( #330 ), #234, .T. ) ;
#300 = VERTEX_POINT ( 'NONE', #80 ) ;
#301 = ADVANCED_FACE ( 'NONE', ( #163 ), #202, .T. ) ;
#302 = SPHERICAL_SURFACE ( 'NONE', #169, 1.449173228346456500 ) ;
#303 = DIRECTION ( 'NONE',  ( -0.0000000000000000000, -1.836909530733566100E-016, 1.000000000000000000 ) ) ;
#304 = FACE_OUTER_BOUND ( 'NONE', #180, .T. ) ;
#305 = AXIS2_PLACEMENT_3D ( 'NONE', #235, #61, #238 ) ;
#306 = EDGE_CURVE ( 'NONE', #196, #316, #83, .T. ) ;
#307 = DIRECTION ( 'NONE',  ( 0.0000000000000000000, 1.000000000000000000, 1.707404996040164500E-016 ) ) ;
#308 = VERTEX_POINT ( 'NONE', #175 ) ;
#309 = COORDINATED_UNIVERSAL_TIME_OFFSET ( 5, 0, .BEHIND. ) ;
#310 = CARTESIAN_POINT ( 'NONE',  ( 0.0000000000000000000, 0.0000000000000000000, 1.483419237013234600 ) ) ;
#311 = ORIENTED_EDGE ( 'NONE', *, *, #93, .F. ) ;
#312 = ORIENTED_EDGE ( 'NONE', *, *, #5, .F. ) ;
#313 = DIRECTION ( 'NONE',  ( -1.224646799147353200E-016, -1.000000000000000000, 0.0000000000000000000 ) ) ;
#314 = LINE ( 'NONE', #298, #2 ) ;
#315 = AXIS2_PLACEMENT_3D ( 'NONE', #41, #210, #168 ) ;
#316 = VERTEX_POINT ( 'NONE', #245 ) ;
#317 = ORIENTED_EDGE ( 'NONE', *, *, #270, .T. ) ;
#318 = CARTESIAN_POINT ( 'NONE',  ( 0.0000000000000000000, -1.495000926601622800E-017, 0.1156327564400663900 ) ) ;
#319 = CC_DESIGN_DATE_AND_TIME_ASSIGNMENT ( #89, #263, ( #147 ) ) ;
#320 = EDGE_LOOP ( 'NONE', ( #286, #317, #151, #164 ) ) ;
#321 = ORIENTED_EDGE ( 'NONE', *, *, #148, .F. ) ;
#322 = ORIENTED_EDGE ( 'NONE', *, *, #46, .T. ) ;
#323 = ORIENTED_EDGE ( 'NONE', *, *, #5, .T. ) ;
#324 = AXIS2_PLACEMENT_3D ( 'NONE', #212, #283, #206 ) ;
#325 = AXIS2_PLACEMENT_3D ( 'NONE', #265, #220, #99 ) ;
#326 = UNCERTAINTY_MEASURE_WITH_UNIT (LENGTH_MEASURE( 1.000000000000000100E-005 ), #244, 'distance_accuracy_value', 'NONE');
#327 = ORIENTED_EDGE ( 'NONE', *, *, #306, .T. ) ;
#328 = COORDINATED_UNIVERSAL_TIME_OFFSET ( 5, 0, .BEHIND. ) ;
#329 = CIRCLE ( 'NONE', #262, 0.4944322300693972400 ) ;
#330 = FACE_OUTER_BOUND ( 'NONE', #39, .T. ) ;
ENDSEC;
END-ISO-10303-21;
