ISO-10303-21;
HEADER;
FILE_DESCRIPTION (( 'STEP AP203' ),
    '1' );
FILE_NAME ('Web Model 43214_43217.step',
    '2018-03-12T19:15:01',
    ( '' ),
    ( '' ),
    'SwSTEP 2.0',
    'SolidWorks 2016',
    '' );
FILE_SCHEMA (( 'CONFIG_CONTROL_DESIGN' ));
ENDSEC;

DATA;
#1 = ORIENTED_EDGE ( 'NONE', *, *, #20, .T. ) ;
#2 = CARTESIAN_POINT ( 'NONE',  ( -4.750000000000000000, 24.99999999999997900, 25.00000000000000000 ) ) ;
#3 = DIRECTION ( 'NONE',  ( 0.0000000000000000000, -1.000000000000000000, -2.775557561562891400E-016 ) ) ;
#4 = EDGE_LOOP ( 'NONE', ( #152, #145, #150, #88 ) ) ;
#5 = ORIENTED_EDGE ( 'NONE', *, *, #168, .F. ) ;
#6 = VECTOR ( 'NONE', #214, 1000.000000000000000 ) ;
#7 = ORIENTED_EDGE ( 'NONE', *, *, #153, .F. ) ;
#8 = CARTESIAN_POINT ( 'NONE',  ( 4.750000000000000000, 0.0000000000000000000, 0.0000000000000000000 ) ) ;
#9 = CC_DESIGN_PERSON_AND_ORGANIZATION_ASSIGNMENT ( #154, #76, ( #36 ) ) ;
#10 = VERTEX_POINT ( 'NONE', #228 ) ;
#11 = CARTESIAN_POINT ( 'NONE',  ( -4.750000000000000000, 24.99999999999997900, 25.00000000000000000 ) ) ;
#12 = ORIENTED_EDGE ( 'NONE', *, *, #220, .F. ) ;
#13 = ADVANCED_FACE ( 'NONE', ( #24 ), #193, .T. ) ;
#14 = PERSON_AND_ORGANIZATION ( #104, #229 ) ;
#15 = VECTOR ( 'NONE', #160, 1000.000000000000000 ) ;
#16 = MANIFOLD_SOLID_BREP ( 'Boss-Extrude1', #234 ) ;
#17 = CARTESIAN_POINT ( 'NONE',  ( 4.750000000000000000, 24.99999999999998900, -25.00000000000000000 ) ) ;
#18 = COORDINATED_UNIVERSAL_TIME_OFFSET ( 5, 0, .BEHIND. ) ;
#19 = LINE ( 'NONE', #235, #15 ) ;
#20 = EDGE_CURVE ( 'NONE', #209, #200, #174, .T. ) ;
#21 = APPLICATION_CONTEXT ( 'configuration controlled 3d designs of mechanical parts and assemblies' ) ;
#22 = APPLICATION_PROTOCOL_DEFINITION ( 'international standard', 'config_control_design', 1994, #144 ) ;
#23 = CARTESIAN_POINT ( 'NONE',  ( 0.0000000000000000000, 0.0000000000000000000, 0.0000000000000000000 ) ) ;
#24 = FACE_OUTER_BOUND ( 'NONE', #119, .T. ) ;
#25 = APPROVAL_ROLE ( '' ) ;
#26 = PERSON_AND_ORGANIZATION_ROLE ( 'creator' ) ;
#27 = VERTEX_POINT ( 'NONE', #107 ) ;
#28 = COORDINATED_UNIVERSAL_TIME_OFFSET ( 5, 0, .BEHIND. ) ;
#29 = COORDINATED_UNIVERSAL_TIME_OFFSET ( 5, 0, .BEHIND. ) ;
#30 = LINE ( 'NONE', #17, #6 ) ;
#31 = PRODUCT ( 'Web Model 43214_43217', 'Web Model 43214_43217', '', ( #146 ) ) ;
#32 = LINE ( 'NONE', #72, #208 ) ;
#33 = ORIENTED_EDGE ( 'NONE', *, *, #155, .T. ) ;
#34 = AXIS2_PLACEMENT_3D ( 'NONE', #23, #201, #115 ) ;
#35 = DATE_AND_TIME ( #169, #44 ) ;
#36 = PRODUCT_DEFINITION_FORMATION_WITH_SPECIFIED_SOURCE ( 'ANY', '', #31, .NOT_KNOWN. ) ;
#37 = ORIENTED_EDGE ( 'NONE', *, *, #180, .T. ) ;
#38 = CARTESIAN_POINT ( 'NONE',  ( 4.750000000000000000, 24.99999999999997900, 25.00000000000000000 ) ) ;
#39 = CARTESIAN_POINT ( 'NONE',  ( -4.750000000000000000, -25.00000000000001100, 25.00000000000000000 ) ) ;
#40 = CC_DESIGN_SECURITY_CLASSIFICATION ( #237, ( #36 ) ) ;
#41 = EDGE_LOOP ( 'NONE', ( #192, #196, #121, #1 ) ) ;
#42 = PERSON_AND_ORGANIZATION_ROLE ( 'creator' ) ;
#43 = CC_DESIGN_PERSON_AND_ORGANIZATION_ASSIGNMENT ( #69, #80, ( #237 ) ) ;
#44 = LOCAL_TIME ( 15, 15, 1.000000000000000000, #58 ) ;
#45 = SHAPE_DEFINITION_REPRESENTATION ( #81, #167 ) ;
#46 = ORIENTED_EDGE ( 'NONE', *, *, #153, .T. ) ;
#47 = ADVANCED_FACE ( 'NONE', ( #132 ), #210, .F. ) ;
#48 = LOCAL_TIME ( 15, 15, 1.000000000000000000, #28 ) ;
#49 = LINE ( 'NONE', #131, #191 ) ;
#50 = CARTESIAN_POINT ( 'NONE',  ( 4.750000000000000000, -25.00000000000001100, -25.00000000000000000 ) ) ;
#51 = AXIS2_PLACEMENT_3D ( 'NONE', #92, #57, #176 ) ;
#52 = LOCAL_TIME ( 15, 15, 1.000000000000000000, #18 ) ;
#53 = PERSON_AND_ORGANIZATION ( #104, #229 ) ;
#54 = DIRECTION ( 'NONE',  ( 1.000000000000000000, 0.0000000000000000000, 0.0000000000000000000 ) ) ;
#55 = VECTOR ( 'NONE', #138, 1000.000000000000000 ) ;
#56 = CARTESIAN_POINT ( 'NONE',  ( 4.750000000000000000, 24.99999999999998900, -25.00000000000000000 ) ) ;
#57 = DIRECTION ( 'NONE',  ( -0.0000000000000000000, 1.000000000000000000, 0.0000000000000000000 ) ) ;
#58 = COORDINATED_UNIVERSAL_TIME_OFFSET ( 5, 0, .BEHIND. ) ;
#59 = EDGE_CURVE ( 'NONE', #226, #200, #109, .T. ) ;
#60 = ORIENTED_EDGE ( 'NONE', *, *, #134, .T. ) ;
#61 = APPROVAL_ROLE ( '' ) ;
#62 = LOCAL_TIME ( 15, 15, 1.000000000000000000, #108 ) ;
#63 = APPROVAL_STATUS ( 'not_yet_approved' ) ;
#64 = CALENDAR_DATE ( 2018, 12, 3 ) ;
#65 = LINE ( 'NONE', #127, #199 ) ;
#66 = DATE_AND_TIME ( #120, #48 ) ;
#67 = AXIS2_PLACEMENT_3D ( 'NONE', #202, #78, #95 ) ;
#68 = CC_DESIGN_PERSON_AND_ORGANIZATION_ASSIGNMENT ( #14, #42, ( #36 ) ) ;
#69 = PERSON_AND_ORGANIZATION ( #104, #229 ) ;
#70 = LINE ( 'NONE', #105, #221 ) ;
#71 = CARTESIAN_POINT ( 'NONE',  ( 4.750000000000000000, -25.00000000000001100, 25.00000000000000000 ) ) ;
#72 = CARTESIAN_POINT ( 'NONE',  ( 4.750000000000000000, 24.99999999999998900, -25.00000000000000000 ) ) ;
#73 = ORIENTED_EDGE ( 'NONE', *, *, #220, .T. ) ;
#74 = ORIENTED_EDGE ( 'NONE', *, *, #165, .T. ) ;
#75 = CARTESIAN_POINT ( 'NONE',  ( -4.750000000000000000, 24.99999999999998900, -25.00000000000000000 ) ) ;
#76 = PERSON_AND_ORGANIZATION_ROLE ( 'design_supplier' ) ;
#77 = CARTESIAN_POINT ( 'NONE',  ( 4.750000000000000000, -25.00000000000001100, 25.00000000000000000 ) ) ;
#78 = DIRECTION ( 'NONE',  ( 0.0000000000000000000, 0.0000000000000000000, -1.000000000000000000 ) ) ;
#79 =( GEOMETRIC_REPRESENTATION_CONTEXT ( 3 ) GLOBAL_UNCERTAINTY_ASSIGNED_CONTEXT ( ( #83 ) ) GLOBAL_UNIT_ASSIGNED_CONTEXT ( ( #99, #161, #129 ) ) REPRESENTATION_CONTEXT ( 'NONE', 'WORKASPACE' ) );
#80 = PERSON_AND_ORGANIZATION_ROLE ( 'classification_officer' ) ;
#81 = PRODUCT_DEFINITION_SHAPE ( 'NONE', 'NONE',  #183 ) ;
#82 = APPROVAL_PERSON_ORGANIZATION ( #126, #151, #178 ) ;
#83 = UNCERTAINTY_MEASURE_WITH_UNIT (LENGTH_MEASURE( 1.000000000000000100E-005 ), #99, 'distance_accuracy_value', 'NONE');
#84 = VECTOR ( 'NONE', #112, 1000.000000000000000 ) ;
#85 = FACE_OUTER_BOUND ( 'NONE', #41, .T. ) ;
#86 = DIRECTION ( 'NONE',  ( 0.0000000000000000000, 0.0000000000000000000, -1.000000000000000000 ) ) ;
#87 = DIRECTION ( 'NONE',  ( 1.000000000000000000, 0.0000000000000000000, 0.0000000000000000000 ) ) ;
#88 = ORIENTED_EDGE ( 'NONE', *, *, #190, .F. ) ;
#89 = DIRECTION ( 'NONE',  ( 0.0000000000000000000, -1.000000000000000000, 0.0000000000000000000 ) ) ;
#90 = CC_DESIGN_APPROVAL ( #172, ( #183 ) ) ;
#91 = CARTESIAN_POINT ( 'NONE',  ( 4.750000000000000000, 24.99999999999998900, -25.00000000000000000 ) ) ;
#92 = CARTESIAN_POINT ( 'NONE',  ( 4.750000000000000000, -25.00000000000001100, 25.00000000000000000 ) ) ;
#93 = DATE_TIME_ROLE ( 'classification_date' ) ;
#94 = FACE_OUTER_BOUND ( 'NONE', #222, .T. ) ;
#95 = DIRECTION ( 'NONE',  ( -1.000000000000000000, 0.0000000000000000000, -0.0000000000000000000 ) ) ;
#96 = DATE_AND_TIME ( #141, #52 ) ;
#97 = CC_DESIGN_APPROVAL ( #102, ( #36 ) ) ;
#98 = VECTOR ( 'NONE', #89, 1000.000000000000000 ) ;
#99 =( LENGTH_UNIT ( ) NAMED_UNIT ( * ) SI_UNIT ( .MILLI., .METRE. ) );
#100 = ORIENTED_EDGE ( 'NONE', *, *, #168, .T. ) ;
#101 = ORIENTED_EDGE ( 'NONE', *, *, #134, .F. ) ;
#102 = APPROVAL ( #147, 'UNSPECIFIED' ) ;
#103 = CC_DESIGN_PERSON_AND_ORGANIZATION_ASSIGNMENT ( #207, #26, ( #183 ) ) ;
#104 = PERSON ( 'UNSPECIFIED', 'UNSPECIFIED', 'UNSPECIFIED', ('UNSPECIFIED'), ('UNSPECIFIED'), ('UNSPECIFIED') ) ;
#105 = CARTESIAN_POINT ( 'NONE',  ( 4.750000000000000000, 24.99999999999997900, 25.00000000000000000 ) ) ;
#106 = CC_DESIGN_PERSON_AND_ORGANIZATION_ASSIGNMENT ( #224, #163, ( #31 ) ) ;
#107 = CARTESIAN_POINT ( 'NONE',  ( -4.750000000000000000, -25.00000000000001100, -25.00000000000000000 ) ) ;
#108 = COORDINATED_UNIVERSAL_TIME_OFFSET ( 5, 0, .BEHIND. ) ;
#109 = LINE ( 'NONE', #11, #98 ) ;
#110 = LINE ( 'NONE', #50, #205 ) ;
#111 = ORIENTED_EDGE ( 'NONE', *, *, #213, .F. ) ;
#112 = DIRECTION ( 'NONE',  ( -1.000000000000000000, -0.0000000000000000000, -0.0000000000000000000 ) ) ;
#113 = DIRECTION ( 'NONE',  ( 0.0000000000000000000, 2.775557561562891400E-016, -1.000000000000000000 ) ) ;
#114 = APPROVAL_STATUS ( 'not_yet_approved' ) ;
#115 = DIRECTION ( 'NONE',  ( 1.000000000000000000, 0.0000000000000000000, 0.0000000000000000000 ) ) ;
#116 = AXIS2_PLACEMENT_3D ( 'NONE', #140, #3, #113 ) ;
#117 = CC_DESIGN_DATE_AND_TIME_ASSIGNMENT ( #148, #93, ( #237 ) ) ;
#118 = APPROVAL_DATE_TIME ( #66, #102 ) ;
#119 = EDGE_LOOP ( 'NONE', ( #60, #37, #46, #73 ) ) ;
#120 = CALENDAR_DATE ( 2018, 12, 3 ) ;
#121 = ORIENTED_EDGE ( 'NONE', *, *, #180, .F. ) ;
#122 = EDGE_LOOP ( 'NONE', ( #74, #5, #7, #33 ) ) ;
#123 = PERSON_AND_ORGANIZATION ( #104, #229 ) ;
#124 = APPROVAL_PERSON_ORGANIZATION ( #53, #172, #25 ) ;
#125 = AXIS2_PLACEMENT_3D ( 'NONE', #56, #157, #54 ) ;
#126 = PERSON_AND_ORGANIZATION ( #104, #229 ) ;
#127 = CARTESIAN_POINT ( 'NONE',  ( 4.750000000000000000, -25.00000000000001100, 25.00000000000000000 ) ) ;
#128 = CARTESIAN_POINT ( 'NONE',  ( 4.750000000000000000, 24.99999999999997900, 25.00000000000000000 ) ) ;
#129 =( NAMED_UNIT ( * ) SI_UNIT ( $, .STERADIAN. ) SOLID_ANGLE_UNIT ( ) );
#130 = DIRECTION ( 'NONE',  ( -0.0000000000000000000, -2.775557561562891400E-016, 1.000000000000000000 ) ) ;
#131 = CARTESIAN_POINT ( 'NONE',  ( -4.750000000000000000, -25.00000000000001100, 25.00000000000000000 ) ) ;
#132 = FACE_OUTER_BOUND ( 'NONE', #4, .T. ) ;
#133 = ORIENTED_EDGE ( 'NONE', *, *, #20, .F. ) ;
#134 = EDGE_CURVE ( 'NONE', #186, #209, #70, .T. ) ;
#135 = EDGE_LOOP ( 'NONE', ( #185, #111, #12, #100 ) ) ;
#136 = APPROVAL_DATE_TIME ( #96, #151 ) ;
#137 = VECTOR ( 'NONE', #130, 1000.000000000000000 ) ;
#138 = DIRECTION ( 'NONE',  ( -1.000000000000000000, -0.0000000000000000000, -0.0000000000000000000 ) ) ;
#139 = ORIENTED_EDGE ( 'NONE', *, *, #59, .T. ) ;
#140 = CARTESIAN_POINT ( 'NONE',  ( 4.750000000000000000, 24.99999999999997900, 25.00000000000000000 ) ) ;
#141 = CALENDAR_DATE ( 2018, 12, 3 ) ;
#142 = PLANE ( 'NONE',  #125 ) ;
#143 = DIRECTION ( 'NONE',  ( 0.0000000000000000000, 0.0000000000000000000, -1.000000000000000000 ) ) ;
#144 = APPLICATION_CONTEXT ( 'configuration controlled 3d designs of mechanical parts and assemblies' ) ;
#145 = ORIENTED_EDGE ( 'NONE', *, *, #184, .F. ) ;
#146 = MECHANICAL_CONTEXT ( 'NONE', #144, 'mechanical' ) ;
#147 = APPROVAL_STATUS ( 'not_yet_approved' ) ;
#148 = DATE_AND_TIME ( #64, #62 ) ;
#149 = CC_DESIGN_DATE_AND_TIME_ASSIGNMENT ( #35, #217, ( #183 ) ) ;
#150 = ORIENTED_EDGE ( 'NONE', *, *, #165, .F. ) ;
#151 = APPROVAL ( #63, 'UNSPECIFIED' ) ;
#152 = ORIENTED_EDGE ( 'NONE', *, *, #59, .F. ) ;
#153 = EDGE_CURVE ( 'NONE', #10, #182, #32, .T. ) ;
#154 = PERSON_AND_ORGANIZATION ( #104, #229 ) ;
#155 = EDGE_CURVE ( 'NONE', #10, #27, #110, .T. ) ;
#156 = ADVANCED_FACE ( 'NONE', ( #158 ), #142, .F. ) ;
#157 = DIRECTION ( 'NONE',  ( -0.0000000000000000000, 0.0000000000000000000, 1.000000000000000000 ) ) ;
#158 = FACE_OUTER_BOUND ( 'NONE', #122, .T. ) ;
#159 = APPROVAL_PERSON_ORGANIZATION ( #123, #102, #61 ) ;
#160 = DIRECTION ( 'NONE',  ( -0.0000000000000000000, 1.000000000000000000, -0.0000000000000000000 ) ) ;
#161 =( NAMED_UNIT ( * ) PLANE_ANGLE_UNIT ( ) SI_UNIT ( $, .RADIAN. ) );
#162 = APPLICATION_PROTOCOL_DEFINITION ( 'international standard', 'config_control_design', 1994, #21 ) ;
#163 = PERSON_AND_ORGANIZATION_ROLE ( 'design_owner' ) ;
#164 = SECURITY_CLASSIFICATION_LEVEL ( 'unclassified' ) ;
#165 = EDGE_CURVE ( 'NONE', #27, #203, #19, .T. ) ;
#166 = VECTOR ( 'NONE', #236, 1000.000000000000000 ) ;
#167 = ADVANCED_BREP_SHAPE_REPRESENTATION ( 'Web Model 43214_43217', ( #16, #34 ), #79 ) ;
#168 = EDGE_CURVE ( 'NONE', #182, #203, #30, .T. ) ;
#169 = CALENDAR_DATE ( 2018, 12, 3 ) ;
#170 = LINE ( 'NONE', #128, #84 ) ;
#171 = DIRECTION ( 'NONE',  ( 0.0000000000000000000, -1.000000000000000000, 0.0000000000000000000 ) ) ;
#172 = APPROVAL ( #114, 'UNSPECIFIED' ) ;
#173 = PLANE ( 'NONE',  #51 ) ;
#174 = LINE ( 'NONE', #71, #55 ) ;
#175 = CARTESIAN_POINT ( 'NONE',  ( -4.750000000000000000, 24.99999999999997900, 25.00000000000000000 ) ) ;
#176 = DIRECTION ( 'NONE',  ( 0.0000000000000000000, -0.0000000000000000000, 1.000000000000000000 ) ) ;
#177 = PLANE ( 'NONE',  #67 ) ;
#178 = APPROVAL_ROLE ( '' ) ;
#179 = DIRECTION ( 'NONE',  ( 0.0000000000000000000, 0.0000000000000000000, -1.000000000000000000 ) ) ;
#180 = EDGE_CURVE ( 'NONE', #209, #10, #65, .T. ) ;
#181 = ORIENTED_EDGE ( 'NONE', *, *, #213, .T. ) ;
#182 = VERTEX_POINT ( 'NONE', #91 ) ;
#183 = PRODUCT_DEFINITION ( 'UNKNOWN', '', #36, #227 ) ;
#184 = EDGE_CURVE ( 'NONE', #203, #226, #218, .T. ) ;
#185 = ORIENTED_EDGE ( 'NONE', *, *, #184, .T. ) ;
#186 = VERTEX_POINT ( 'NONE', #38 ) ;
#187 = PRODUCT_RELATED_PRODUCT_CATEGORY ( 'detail', '', ( #31 ) ) ;
#188 = ADVANCED_FACE ( 'NONE', ( #85 ), #173, .F. ) ;
#189 = ADVANCED_FACE ( 'NONE', ( #195 ), #216, .F. ) ;
#190 = EDGE_CURVE ( 'NONE', #200, #27, #49, .T. ) ;
#191 = VECTOR ( 'NONE', #179, 1000.000000000000000 ) ;
#192 = ORIENTED_EDGE ( 'NONE', *, *, #190, .T. ) ;
#193 = PLANE ( 'NONE',  #225 ) ;
#194 = CARTESIAN_POINT ( 'NONE',  ( -4.750000000000000000, 0.0000000000000000000, 0.0000000000000000000 ) ) ;
#195 = FACE_OUTER_BOUND ( 'NONE', #135, .T. ) ;
#196 = ORIENTED_EDGE ( 'NONE', *, *, #155, .F. ) ;
#197 = DIRECTION ( 'NONE',  ( -1.000000000000000000, -0.0000000000000000000, -0.0000000000000000000 ) ) ;
#198 = DATE_AND_TIME ( #204, #212 ) ;
#199 = VECTOR ( 'NONE', #143, 1000.000000000000000 ) ;
#200 = VERTEX_POINT ( 'NONE', #39 ) ;
#201 = DIRECTION ( 'NONE',  ( 0.0000000000000000000, 0.0000000000000000000, 1.000000000000000000 ) ) ;
#202 = CARTESIAN_POINT ( 'NONE',  ( 4.750000000000000000, 24.99999999999997900, 25.00000000000000000 ) ) ;
#203 = VERTEX_POINT ( 'NONE', #75 ) ;
#204 = CALENDAR_DATE ( 2018, 12, 3 ) ;
#205 = VECTOR ( 'NONE', #197, 1000.000000000000000 ) ;
#206 = DIRECTION ( 'NONE',  ( -0.0000000000000000000, 1.000000000000000000, -0.0000000000000000000 ) ) ;
#207 = PERSON_AND_ORGANIZATION ( #104, #229 ) ;
#208 = VECTOR ( 'NONE', #206, 1000.000000000000000 ) ;
#209 = VERTEX_POINT ( 'NONE', #77 ) ;
#210 = PLANE ( 'NONE',  #233 ) ;
#211 = DIRECTION ( 'NONE',  ( 1.000000000000000000, 0.0000000000000000000, 0.0000000000000000000 ) ) ;
#212 = LOCAL_TIME ( 15, 15, 1.000000000000000000, #29 ) ;
#213 = EDGE_CURVE ( 'NONE', #186, #226, #170, .T. ) ;
#214 = DIRECTION ( 'NONE',  ( -1.000000000000000000, -0.0000000000000000000, -0.0000000000000000000 ) ) ;
#215 = APPROVAL_DATE_TIME ( #198, #172 ) ;
#216 = PLANE ( 'NONE',  #116 ) ;
#217 = DATE_TIME_ROLE ( 'creation_date' ) ;
#218 = LINE ( 'NONE', #175, #166 ) ;
#219 = CARTESIAN_POINT ( 'NONE',  ( 4.750000000000000000, 24.99999999999997900, 25.00000000000000000 ) ) ;
#220 = EDGE_CURVE ( 'NONE', #182, #186, #232, .T. ) ;
#221 = VECTOR ( 'NONE', #171, 1000.000000000000000 ) ;
#222 = EDGE_LOOP ( 'NONE', ( #139, #133, #101, #181 ) ) ;
#223 = CC_DESIGN_APPROVAL ( #151, ( #237 ) ) ;
#224 = PERSON_AND_ORGANIZATION ( #104, #229 ) ;
#225 = AXIS2_PLACEMENT_3D ( 'NONE', #8, #211, #86 ) ;
#226 = VERTEX_POINT ( 'NONE', #2 ) ;
#227 = DESIGN_CONTEXT ( 'detailed design', #21, 'design' ) ;
#228 = CARTESIAN_POINT ( 'NONE',  ( 4.750000000000000000, -25.00000000000001100, -25.00000000000000000 ) ) ;
#229 = ORGANIZATION ( 'UNSPECIFIED', 'UNSPECIFIED', '' ) ;
#230 = DIRECTION ( 'NONE',  ( 0.0000000000000000000, 0.0000000000000000000, -1.000000000000000000 ) ) ;
#231 = ADVANCED_FACE ( 'NONE', ( #94 ), #177, .F. ) ;
#232 = LINE ( 'NONE', #219, #137 ) ;
#233 = AXIS2_PLACEMENT_3D ( 'NONE', #194, #87, #230 ) ;
#234 = CLOSED_SHELL ( 'NONE', ( #231, #188, #156, #189, #13, #47 ) ) ;
#235 = CARTESIAN_POINT ( 'NONE',  ( -4.750000000000000000, 24.99999999999998900, -25.00000000000000000 ) ) ;
#236 = DIRECTION ( 'NONE',  ( -0.0000000000000000000, -2.775557561562891400E-016, 1.000000000000000000 ) ) ;
#237 = SECURITY_CLASSIFICATION ( '', '', #164 ) ;
ENDSEC;
END-ISO-10303-21;
