ISO-10303-21;
HEADER;
FILE_DESCRIPTION (( 'STEP AP203' ),
    '1' );
FILE_NAME ('Web Model 43817_43734.step',
    '2017-04-10T17:28:26',
    ( '' ),
    ( '' ),
    'SwSTEP 2.0',
    'SolidWorks 2016',
    '' );
FILE_SCHEMA (( 'CONFIG_CONTROL_DESIGN' ));
ENDSEC;

DATA;
#1 = CARTESIAN_POINT ( 'NONE',  ( 0.0000000000000000000, 0.0000000000000000000, 0.5000000000000000000 ) ) ;
#2 = APPROVAL_PERSON_ORGANIZATION ( #66, #38, #47 ) ;
#3 = EDGE_CURVE ( 'NONE', #20, #174, #57, .T. ) ;
#4 = EDGE_CURVE ( 'NONE', #46, #104, #107, .T. ) ;
#5 = DIRECTION ( 'NONE',  ( 1.000000000000000000, 0.0000000000000000000, 0.0000000000000000000 ) ) ;
#6 = APPROVAL_STATUS ( 'not_yet_approved' ) ;
#7 = EDGE_LOOP ( 'NONE', ( #151, #169 ) ) ;
#8 = CC_DESIGN_DATE_AND_TIME_ASSIGNMENT ( #29, #68, ( #132 ) ) ;
#9 = DIRECTION ( 'NONE',  ( 1.000000000000000000, 0.0000000000000000000, 0.0000000000000000000 ) ) ;
#10 = FACE_OUTER_BOUND ( 'NONE', #42, .T. ) ;
#11 = PERSON_AND_ORGANIZATION_ROLE ( 'creator' ) ;
#12 = DIRECTION ( 'NONE',  ( -0.0000000000000000000, -0.0000000000000000000, 1.000000000000000000 ) ) ;
#13 = ORGANIZATION ( 'UNSPECIFIED', 'UNSPECIFIED', '' ) ;
#14 = COORDINATED_UNIVERSAL_TIME_OFFSET ( 5, 0, .BEHIND. ) ;
#15 = PERSON_AND_ORGANIZATION ( #73, #13 ) ;
#16 = FACE_OUTER_BOUND ( 'NONE', #153, .T. ) ;
#17 = MANIFOLD_SOLID_BREP ( 'Revolve2', #40 ) ;
#18 = LOCAL_TIME ( 13, 28, 26.00000000000000000, #140 ) ;
#19 = PERSON_AND_ORGANIZATION ( #73, #13 ) ;
#20 = VERTEX_POINT ( 'NONE', #146 ) ;
#21 = CC_DESIGN_SECURITY_CLASSIFICATION ( #160, ( #82 ) ) ;
#22 = CARTESIAN_POINT ( 'NONE',  ( -12.50000000000000000, 1.530808498934191500E-015, 0.5000000000000000000 ) ) ;
#23 = APPROVAL_DATE_TIME ( #33, #38 ) ;
#24 = AXIS2_PLACEMENT_3D ( 'NONE', #155, #76, #5 ) ;
#25 = ORIENTED_EDGE ( 'NONE', *, *, #128, .F. ) ;
#26 = DIRECTION ( 'NONE',  ( -1.000000000000000000, 0.0000000000000000000, -0.0000000000000000000 ) ) ;
#27 = DESIGN_CONTEXT ( 'detailed design', #69, 'design' ) ;
#28 = CARTESIAN_POINT ( 'NONE',  ( -12.50000000000000000, 1.530808498934191500E-015, -0.5000000000000000000 ) ) ;
#29 = DATE_AND_TIME ( #60, #99 ) ;
#30 = DIRECTION ( 'NONE',  ( -0.0000000000000000000, -0.0000000000000000000, 1.000000000000000000 ) ) ;
#31 = ADVANCED_FACE ( 'NONE', ( #16 ), #166, .F. ) ;
#32 = CC_DESIGN_PERSON_AND_ORGANIZATION_ASSIGNMENT ( #41, #78, ( #82 ) ) ;
#33 = DATE_AND_TIME ( #79, #18 ) ;
#34 = LOCAL_TIME ( 13, 28, 26.00000000000000000, #90 ) ;
#35 = CARTESIAN_POINT ( 'NONE',  ( 0.0000000000000000000, 0.0000000000000000000, 0.5000000000000000000 ) ) ;
#36 = APPROVAL_PERSON_ORGANIZATION ( #65, #97, #127 ) ;
#37 = AXIS2_PLACEMENT_3D ( 'NONE', #164, #12, #92 ) ;
#38 = APPROVAL ( #6, 'UNSPECIFIED' ) ;
#39 = SECURITY_CLASSIFICATION_LEVEL ( 'unclassified' ) ;
#40 = CLOSED_SHELL ( 'NONE', ( #96, #31, #58, #141 ) ) ;
#41 = PERSON_AND_ORGANIZATION ( #73, #13 ) ;
#42 = EDGE_LOOP ( 'NONE', ( #86, #168, #145, #25 ) ) ;
#43 = CARTESIAN_POINT ( 'NONE',  ( 0.0000000000000000000, 0.0000000000000000000, -0.5000000000000000000 ) ) ;
#44 = CIRCLE ( 'NONE', #24, 12.50000000000000000 ) ;
#45 = PRODUCT_RELATED_PRODUCT_CATEGORY ( 'detail', '', ( #80 ) ) ;
#46 = VERTEX_POINT ( 'NONE', #87 ) ;
#47 = APPROVAL_ROLE ( '' ) ;
#48 = DATE_TIME_ROLE ( 'classification_date' ) ;
#49 = APPLICATION_PROTOCOL_DEFINITION ( 'international standard', 'config_control_design', 1994, #69 ) ;
#50 = CC_DESIGN_PERSON_AND_ORGANIZATION_ASSIGNMENT ( #15, #116, ( #160 ) ) ;
#51 = CARTESIAN_POINT ( 'NONE',  ( 12.50000000000000000, 0.0000000000000000000, 0.5000000000000000000 ) ) ;
#52 = FACE_OUTER_BOUND ( 'NONE', #7, .T. ) ;
#53 = APPLICATION_CONTEXT ( 'configuration controlled 3d designs of mechanical parts and assemblies' ) ;
#54 = CALENDAR_DATE ( 2017, 10, 4 ) ;
#55 = LOCAL_TIME ( 13, 28, 26.00000000000000000, #119 ) ;
#56 = PERSON_AND_ORGANIZATION ( #73, #13 ) ;
#57 = CIRCLE ( 'NONE', #170, 12.50000000000000000 ) ;
#58 = ADVANCED_FACE ( 'NONE', ( #131 ), #152, .T. ) ;
#59 = EDGE_LOOP ( 'NONE', ( #126, #74, #70, #167 ) ) ;
#60 = CALENDAR_DATE ( 2017, 10, 4 ) ;
#61 = CC_DESIGN_PERSON_AND_ORGANIZATION_ASSIGNMENT ( #56, #11, ( #132 ) ) ;
#62 = PERSON_AND_ORGANIZATION ( #73, #13 ) ;
#63 = APPLICATION_PROTOCOL_DEFINITION ( 'international standard', 'config_control_design', 1994, #53 ) ;
#64 = CARTESIAN_POINT ( 'NONE',  ( 0.0000000000000000000, 0.0000000000000000000, 0.5000000000000000000 ) ) ;
#65 = PERSON_AND_ORGANIZATION ( #73, #13 ) ;
#66 = PERSON_AND_ORGANIZATION ( #73, #13 ) ;
#67 = EDGE_CURVE ( 'NONE', #104, #20, #81, .T. ) ;
#68 = DATE_TIME_ROLE ( 'creation_date' ) ;
#69 = APPLICATION_CONTEXT ( 'configuration controlled 3d designs of mechanical parts and assemblies' ) ;
#70 = ORIENTED_EDGE ( 'NONE', *, *, #128, .T. ) ;
#71 = CC_DESIGN_APPROVAL ( #135, ( #82 ) ) ;
#72 = EDGE_CURVE ( 'NONE', #174, #20, #122, .T. ) ;
#73 = PERSON ( 'UNSPECIFIED', 'UNSPECIFIED', 'UNSPECIFIED', ('UNSPECIFIED'), ('UNSPECIFIED'), ('UNSPECIFIED') ) ;
#74 = ORIENTED_EDGE ( 'NONE', *, *, #98, .T. ) ;
#75 = APPROVAL_DATE_TIME ( #165, #97 ) ;
#76 = DIRECTION ( 'NONE',  ( -0.0000000000000000000, -0.0000000000000000000, 1.000000000000000000 ) ) ;
#77 = APPROVAL_PERSON_ORGANIZATION ( #62, #135, #154 ) ;
#78 = PERSON_AND_ORGANIZATION_ROLE ( 'creator' ) ;
#79 = CALENDAR_DATE ( 2017, 10, 4 ) ;
#80 = PRODUCT ( 'Web Model 43817_43734', 'Web Model 43817_43734', '', ( #125 ) ) ;
#81 = LINE ( 'NONE', #22, #149 ) ;
#82 = PRODUCT_DEFINITION_FORMATION_WITH_SPECIFIED_SOURCE ( 'ANY', '', #80, .NOT_KNOWN. ) ;
#83 = APPROVAL_DATE_TIME ( #88, #135 ) ;
#84 = DIRECTION ( 'NONE',  ( 0.0000000000000000000, 0.0000000000000000000, -1.000000000000000000 ) ) ;
#85 = PLANE ( 'NONE',  #113 ) ;
#86 = ORIENTED_EDGE ( 'NONE', *, *, #4, .T. ) ;
#87 = CARTESIAN_POINT ( 'NONE',  ( 12.50000000000000000, 0.0000000000000000000, -0.5000000000000000000 ) ) ;
#88 = DATE_AND_TIME ( #171, #34 ) ;
#89 = APPROVAL_STATUS ( 'not_yet_approved' ) ;
#90 = COORDINATED_UNIVERSAL_TIME_OFFSET ( 5, 0, .BEHIND. ) ;
#91 =( NAMED_UNIT ( * ) SI_UNIT ( $, .STERADIAN. ) SOLID_ANGLE_UNIT ( ) );
#92 = DIRECTION ( 'NONE',  ( 1.000000000000000000, 0.0000000000000000000, 0.0000000000000000000 ) ) ;
#93 = DIRECTION ( 'NONE',  ( 1.000000000000000000, 0.0000000000000000000, 0.0000000000000000000 ) ) ;
#94 = CALENDAR_DATE ( 2017, 10, 4 ) ;
#95 = DIRECTION ( 'NONE',  ( -0.0000000000000000000, -0.0000000000000000000, 1.000000000000000000 ) ) ;
#96 = ADVANCED_FACE ( 'NONE', ( #10 ), #129, .T. ) ;
#97 = APPROVAL ( #109, 'UNSPECIFIED' ) ;
#98 = EDGE_CURVE ( 'NONE', #104, #46, #44, .T. ) ;
#99 = LOCAL_TIME ( 13, 28, 26.00000000000000000, #110 ) ;
#100 = PERSON_AND_ORGANIZATION ( #73, #13 ) ;
#101 = VECTOR ( 'NONE', #138, 1000.000000000000000 ) ;
#102 = SHAPE_DEFINITION_REPRESENTATION ( #136, #117 ) ;
#103 = DIRECTION ( 'NONE',  ( 1.000000000000000000, 0.0000000000000000000, 0.0000000000000000000 ) ) ;
#104 = VERTEX_POINT ( 'NONE', #28 ) ;
#105 = AXIS2_PLACEMENT_3D ( 'NONE', #43, #30, #9 ) ;
#106 = PERSON_AND_ORGANIZATION_ROLE ( 'design_supplier' ) ;
#107 = CIRCLE ( 'NONE', #105, 12.50000000000000000 ) ;
#108 = CARTESIAN_POINT ( 'NONE',  ( 12.50000000000000000, 0.0000000000000000000, 0.5000000000000000000 ) ) ;
#109 = APPROVAL_STATUS ( 'not_yet_approved' ) ;
#110 = COORDINATED_UNIVERSAL_TIME_OFFSET ( 5, 0, .BEHIND. ) ;
#111 = ORIENTED_EDGE ( 'NONE', *, *, #3, .T. ) ;
#112 = DIRECTION ( 'NONE',  ( 0.0000000000000000000, -0.0000000000000000000, 1.000000000000000000 ) ) ;
#113 = AXIS2_PLACEMENT_3D ( 'NONE', #150, #112, #103 ) ;
#114 = DIRECTION ( 'NONE',  ( -0.0000000000000000000, -0.0000000000000000000, 1.000000000000000000 ) ) ;
#115 = CC_DESIGN_APPROVAL ( #97, ( #160 ) ) ;
#116 = PERSON_AND_ORGANIZATION_ROLE ( 'classification_officer' ) ;
#117 = ADVANCED_BREP_SHAPE_REPRESENTATION ( 'Web Model 43817_43734', ( #17, #157 ), #134 ) ;
#118 = DIRECTION ( 'NONE',  ( -0.0000000000000000000, -0.0000000000000000000, 1.000000000000000000 ) ) ;
#119 = COORDINATED_UNIVERSAL_TIME_OFFSET ( 5, 0, .BEHIND. ) ;
#120 = LINE ( 'NONE', #51, #101 ) ;
#121 = DIRECTION ( 'NONE',  ( 1.000000000000000000, 0.0000000000000000000, 0.0000000000000000000 ) ) ;
#122 = CIRCLE ( 'NONE', #124, 12.50000000000000000 ) ;
#123 = DIRECTION ( 'NONE',  ( -0.0000000000000000000, -0.0000000000000000000, 1.000000000000000000 ) ) ;
#124 = AXIS2_PLACEMENT_3D ( 'NONE', #35, #123, #93 ) ;
#125 = MECHANICAL_CONTEXT ( 'NONE', #53, 'mechanical' ) ;
#126 = ORIENTED_EDGE ( 'NONE', *, *, #67, .F. ) ;
#127 = APPROVAL_ROLE ( '' ) ;
#128 = EDGE_CURVE ( 'NONE', #46, #174, #120, .T. ) ;
#129 = CYLINDRICAL_SURFACE ( 'NONE', #172, 12.50000000000000000 ) ;
#130 = PERSON_AND_ORGANIZATION_ROLE ( 'design_owner' ) ;
#131 = FACE_OUTER_BOUND ( 'NONE', #59, .T. ) ;
#132 = PRODUCT_DEFINITION ( 'UNKNOWN', '', #82, #27 ) ;
#133 = LOCAL_TIME ( 13, 28, 26.00000000000000000, #14 ) ;
#134 =( GEOMETRIC_REPRESENTATION_CONTEXT ( 3 ) GLOBAL_UNCERTAINTY_ASSIGNED_CONTEXT ( ( #159 ) ) GLOBAL_UNIT_ASSIGNED_CONTEXT ( ( #144, #158, #91 ) ) REPRESENTATION_CONTEXT ( 'NONE', 'WORKASPACE' ) );
#135 = APPROVAL ( #89, 'UNSPECIFIED' ) ;
#136 = PRODUCT_DEFINITION_SHAPE ( 'NONE', 'NONE',  #132 ) ;
#137 = DATE_AND_TIME ( #94, #133 ) ;
#138 = DIRECTION ( 'NONE',  ( -0.0000000000000000000, -0.0000000000000000000, 1.000000000000000000 ) ) ;
#139 = CC_DESIGN_DATE_AND_TIME_ASSIGNMENT ( #137, #48, ( #160 ) ) ;
#140 = COORDINATED_UNIVERSAL_TIME_OFFSET ( 5, 0, .BEHIND. ) ;
#141 = ADVANCED_FACE ( 'NONE', ( #52 ), #85, .F. ) ;
#142 = CC_DESIGN_APPROVAL ( #38, ( #132 ) ) ;
#143 = DIRECTION ( 'NONE',  ( 0.0000000000000000000, 0.0000000000000000000, 1.000000000000000000 ) ) ;
#144 =( LENGTH_UNIT ( ) NAMED_UNIT ( * ) SI_UNIT ( .MILLI., .METRE. ) );
#145 = ORIENTED_EDGE ( 'NONE', *, *, #72, .F. ) ;
#146 = CARTESIAN_POINT ( 'NONE',  ( -12.50000000000000000, 1.530808498934191500E-015, 0.5000000000000000000 ) ) ;
#147 = CC_DESIGN_PERSON_AND_ORGANIZATION_ASSIGNMENT ( #100, #106, ( #82 ) ) ;
#148 = CARTESIAN_POINT ( 'NONE',  ( 0.0000000000000000000, 0.0000000000000000000, 0.0000000000000000000 ) ) ;
#149 = VECTOR ( 'NONE', #95, 1000.000000000000000 ) ;
#150 = CARTESIAN_POINT ( 'NONE',  ( 0.0000000000000000000, 0.0000000000000000000, -0.5000000000000000000 ) ) ;
#151 = ORIENTED_EDGE ( 'NONE', *, *, #4, .F. ) ;
#152 = CYLINDRICAL_SURFACE ( 'NONE', #37, 12.50000000000000000 ) ;
#153 = EDGE_LOOP ( 'NONE', ( #156, #111 ) ) ;
#154 = APPROVAL_ROLE ( '' ) ;
#155 = CARTESIAN_POINT ( 'NONE',  ( 0.0000000000000000000, 0.0000000000000000000, -0.5000000000000000000 ) ) ;
#156 = ORIENTED_EDGE ( 'NONE', *, *, #72, .T. ) ;
#157 = AXIS2_PLACEMENT_3D ( 'NONE', #148, #143, #175 ) ;
#158 =( NAMED_UNIT ( * ) PLANE_ANGLE_UNIT ( ) SI_UNIT ( $, .RADIAN. ) );
#159 = UNCERTAINTY_MEASURE_WITH_UNIT (LENGTH_MEASURE( 1.000000000000000100E-005 ), #144, 'distance_accuracy_value', 'NONE');
#160 = SECURITY_CLASSIFICATION ( '', '', #39 ) ;
#161 = DIRECTION ( 'NONE',  ( 1.000000000000000000, 0.0000000000000000000, 0.0000000000000000000 ) ) ;
#162 = AXIS2_PLACEMENT_3D ( 'NONE', #64, #84, #26 ) ;
#163 = CC_DESIGN_PERSON_AND_ORGANIZATION_ASSIGNMENT ( #19, #130, ( #80 ) ) ;
#164 = CARTESIAN_POINT ( 'NONE',  ( 0.0000000000000000000, 0.0000000000000000000, 0.5000000000000000000 ) ) ;
#165 = DATE_AND_TIME ( #54, #55 ) ;
#166 = PLANE ( 'NONE',  #162 ) ;
#167 = ORIENTED_EDGE ( 'NONE', *, *, #3, .F. ) ;
#168 = ORIENTED_EDGE ( 'NONE', *, *, #67, .T. ) ;
#169 = ORIENTED_EDGE ( 'NONE', *, *, #98, .F. ) ;
#170 = AXIS2_PLACEMENT_3D ( 'NONE', #173, #118, #121 ) ;
#171 = CALENDAR_DATE ( 2017, 10, 4 ) ;
#172 = AXIS2_PLACEMENT_3D ( 'NONE', #1, #114, #161 ) ;
#173 = CARTESIAN_POINT ( 'NONE',  ( 0.0000000000000000000, 0.0000000000000000000, 0.5000000000000000000 ) ) ;
#174 = VERTEX_POINT ( 'NONE', #108 ) ;
#175 = DIRECTION ( 'NONE',  ( 1.000000000000000000, 0.0000000000000000000, 0.0000000000000000000 ) ) ;
ENDSEC;
END-ISO-10303-21;
