ISO-10303-21;
HEADER;
FILE_DESCRIPTION (( 'STEP AP203' ),
    '1' );
FILE_NAME ('35mm BEAMSPLITTER CUBE TS_48877.step',
    '2021-09-20T13:50:14',
    ( '' ),
    ( '' ),
    'SwSTEP 2.0',
    'SolidWorks 2018',
    '' );
FILE_SCHEMA (( 'CONFIG_CONTROL_DESIGN' ));
ENDSEC;

DATA;
#1 = CALENDAR_DATE ( 2021, 20, 9 ) ;
#2 = CC_DESIGN_PERSON_AND_ORGANIZATION_ASSIGNMENT ( #6, #11, ( #48 ) ) ;
#3 = LOCAL_TIME ( 9, 50, 14.00000000000000000, #296 ) ;
#4 = EDGE_LOOP ( 'NONE', ( #28, #214, #55, #124 ) ) ;
#5 = CONTEXT_DEPENDENT_SHAPE_REPRESENTATION ( #19, #146 ) ;
#6 = PERSON_AND_ORGANIZATION ( #193, #75 ) ;
#7 = PRODUCT_DEFINITION ( 'UNKNOWN', '', #30, #203 ) ;
#8 = PERSON_AND_ORGANIZATION ( #193, #75 ) ;
#9 =( NAMED_UNIT ( * ) SI_UNIT ( $, .STERADIAN. ) SOLID_ANGLE_UNIT ( ) );
#10 = DIRECTION ( 'NONE',  ( 0.000000000000000000, 0.000000000000000000, 1.000000000000000000 ) ) ;
#11 = PERSON_AND_ORGANIZATION_ROLE ( 'classification_officer' ) ;
#12 = APPROVAL ( #42, 'UNSPECIFIED' ) ;
#13 = PLANE ( 'NONE',  #333 ) ;
#14 = CARTESIAN_POINT ( 'NONE',  ( 1.298504712866985032E-15, 24.74873734152903282, -17.50000000000000000 ) ) ;
#15 = APPROVAL_STATUS ( 'not_yet_approved' ) ;
#16 = LINE ( 'NONE', #184, #309 ) ;
#17 = EDGE_CURVE ( 'NONE', #93, #131, #16, .T. ) ;
#18 = CARTESIAN_POINT ( 'NONE',  ( 24.74873734152929217, -3.025926310689071696E-15, -17.50000000000000000 ) ) ;
#19 =( REPRESENTATION_RELATIONSHIP ('NONE','NONE', #238, #119 ) REPRESENTATION_RELATIONSHIP_WITH_TRANSFORMATION ( #202 )SHAPE_REPRESENTATION_RELATIONSHIP( ) );
#20 = DATE_AND_TIME ( #114, #92 ) ;
#21 = COORDINATED_UNIVERSAL_TIME_OFFSET ( 5, 0, .BEHIND. ) ;
#22 =( LENGTH_UNIT ( ) NAMED_UNIT ( * ) SI_UNIT ( .MILLI., .METRE. ) );
#23 = LINE ( 'NONE', #266, #99 ) ;
#24 = APPROVAL ( #15, 'UNSPECIFIED' ) ;
#25 = APPROVAL_ROLE ( '' ) ;
#26 = DIRECTION ( 'NONE',  ( 0.000000000000000000, 0.000000000000000000, 1.000000000000000000 ) ) ;
#27 = PERSON_AND_ORGANIZATION ( #193, #75 ) ;
#28 = ORIENTED_EDGE ( 'NONE', *, *, #166, .T. ) ;
#29 = EDGE_CURVE ( 'NONE', #161, #93, #316, .T. ) ;
#30 = PRODUCT_DEFINITION_FORMATION_WITH_SPECIFIED_SOURCE ( 'ANY', '', #138, .NOT_KNOWN. ) ;
#31 = DATE_AND_TIME ( #256, #308 ) ;
#32 = APPROVAL_PERSON_ORGANIZATION ( #188, #312, #175 ) ;
#33 = ORIENTED_EDGE ( 'NONE', *, *, #174, .T. ) ;
#34 = AXIS2_PLACEMENT_3D ( 'NONE', #263, #10, #344 ) ;
#35 = APPROVAL_PERSON_ORGANIZATION ( #340, #341, #257 ) ;
#36 = FACE_OUTER_BOUND ( 'NONE', #108, .T. ) ;
#37 = EDGE_CURVE ( 'NONE', #297, #254, #43, .T. ) ;
#38 = PERSON_AND_ORGANIZATION ( #193, #75 ) ;
#39 = APPLICATION_PROTOCOL_DEFINITION ( 'international standard', 'config_control_design', 1994, #94 ) ;
#40 = CC_DESIGN_PERSON_AND_ORGANIZATION_ASSIGNMENT ( #204, #290, ( #279 ) ) ;
#41 = APPROVAL_STATUS ( 'not_yet_approved' ) ;
#42 = APPROVAL_STATUS ( 'not_yet_approved' ) ;
#43 = LINE ( 'NONE', #14, #329 ) ;
#44 = PERSON_AND_ORGANIZATION_ROLE ( 'design_supplier' ) ;
#45 = DIRECTION ( 'NONE',  ( 0.000000000000000000, 0.000000000000000000, 1.000000000000000000 ) ) ;
#46 = DIRECTION ( 'NONE',  ( 1.000000000000000000, 0.000000000000000000, 0.000000000000000000 ) ) ;
#47 = DATE_AND_TIME ( #336, #199 ) ;
#48 = SECURITY_CLASSIFICATION ( '', '', #205 ) ;
#49 = APPROVAL_STATUS ( 'not_yet_approved' ) ;
#50 = ADVANCED_FACE ( 'NONE', ( #36 ), #13, .F. ) ;
#51 = CARTESIAN_POINT ( 'NONE',  ( -24.74873734152929217, 0.000000000000000000, 17.50000000000000000 ) ) ;
#52 = CC_DESIGN_DATE_AND_TIME_ASSIGNMENT ( #47, #189, ( #282 ) ) ;
#53 = CARTESIAN_POINT ( 'NONE',  ( 24.74873734152929217, -3.025926310689071696E-15, 17.50000000000000000 ) ) ;
#54 = CARTESIAN_POINT ( 'NONE',  ( 24.74873734152929217, -3.025926310689071696E-15, 17.50000000000000000 ) ) ;
#55 = ORIENTED_EDGE ( 'NONE', *, *, #29, .F. ) ;
#56 = CC_DESIGN_PERSON_AND_ORGANIZATION_ASSIGNMENT ( #276, #125, ( #221 ) ) ;
#57 = COORDINATED_UNIVERSAL_TIME_OFFSET ( 5, 0, .BEHIND. ) ;
#58 = EDGE_CURVE ( 'NONE', #101, #297, #207, .T. ) ;
#59 = CC_DESIGN_PERSON_AND_ORGANIZATION_ASSIGNMENT ( #27, #148, ( #30 ) ) ;
#60 = ORGANIZATION ( 'NAUO-ORG2', 'UNSPECIFIED', 'UNSPECIFIED' ) ;
#61 = CALENDAR_DATE ( 2021, 20, 9 ) ;
#62 = CC_DESIGN_SECURITY_CLASSIFICATION ( #282, ( #360 ) ) ;
#63 = DESIGN_CONTEXT ( 'detailed design', #100, 'design' ) ;
#64 = APPROVAL_DATE_TIME ( #212, #354 ) ;
#65 = CC_DESIGN_APPROVAL ( #312, ( #30 ) ) ;
#66 = CC_DESIGN_APPROVAL ( #180, ( #48 ) ) ;
#67 = CALENDAR_DATE ( 2021, 20, 9 ) ;
#68 = DIRECTION ( 'NONE',  ( 1.000000000000000000, 0.000000000000000000, 0.000000000000000000 ) ) ;
#69 = PERSON_AND_ORGANIZATION ( #193, #75 ) ;
#70 = DIRECTION ( 'NONE',  ( 0.000000000000000000, 0.000000000000000000, 1.000000000000000000 ) ) ;
#71 = VECTOR ( 'NONE', #190, 1000.000000000000000 ) ;
#72 = CARTESIAN_POINT ( 'NONE',  ( 0.000000000000000000, 0.000000000000000000, 0.000000000000000000 ) ) ;
#73 = DIRECTION ( 'NONE',  ( 0.000000000000000000, -2.220446049250313081E-16, 1.000000000000000222 ) ) ;
#74 = COORDINATED_UNIVERSAL_TIME_OFFSET ( 5, 0, .BEHIND. ) ;
#75 = ORGANIZATION ( 'UNSPECIFIED', 'UNSPECIFIED', '' ) ;
#76 = ORIENTED_EDGE ( 'NONE', *, *, #17, .F. ) ;
#77 = COORDINATED_UNIVERSAL_TIME_OFFSET ( 5, 0, .BEHIND. ) ;
#78 = PLANE ( 'NONE',  #109 ) ;
#79 = PRODUCT_RELATED_PRODUCT_CATEGORY ( 'detail', '', ( #138 ) ) ;
#80 = ADVANCED_FACE ( 'NONE', ( #247 ), #78, .F. ) ;
#81 = CLOSED_SHELL ( 'NONE', ( #80, #82, #158, #215, #50 ) ) ;
#82 = ADVANCED_FACE ( 'NONE', ( #224 ), #324, .F. ) ;
#83 = CALENDAR_DATE ( 2021, 20, 9 ) ;
#84 = CC_DESIGN_PERSON_AND_ORGANIZATION_ASSIGNMENT ( #110, #284, ( #268 ) ) ;
#85 = LOCAL_TIME ( 9, 50, 14.00000000000000000, #117 ) ;
#86 = VECTOR ( 'NONE', #321, 1000.000000000000114 ) ;
#87 = CC_DESIGN_PERSON_AND_ORGANIZATION_ASSIGNMENT ( #186, #273, ( #282 ) ) ;
#88 = APPROVAL ( #208, 'UNSPECIFIED' ) ;
#89 = ORIENTED_EDGE ( 'NONE', *, *, #17, .T. ) ;
#90 = VECTOR ( 'NONE', #243, 1000.000000000000000 ) ;
#91 = ORIENTED_EDGE ( 'NONE', *, *, #174, .F. ) ;
#92 = LOCAL_TIME ( 9, 50, 14.00000000000000000, #74 ) ;
#93 = VERTEX_POINT ( 'NONE', #132 ) ;
#94 = APPLICATION_CONTEXT ( 'configuration controlled 3d designs of mechanical parts and assemblies' ) ;
#95 = CC_DESIGN_PERSON_AND_ORGANIZATION_ASSIGNMENT ( #192, #152, ( #138 ) ) ;
#96 = APPROVAL_ROLE ( '' ) ;
#97 = DATE_TIME_ROLE ( 'creation_date' ) ;
#98 = PERSON_AND_ORGANIZATION ( #193, #75 ) ;
#99 = VECTOR ( 'NONE', #322, 1000.000000000000000 ) ;
#100 = APPLICATION_CONTEXT ( 'configuration controlled 3d designs of mechanical parts and assemblies' ) ;
#101 = VERTEX_POINT ( 'NONE', #107 ) ;
#102 = DATE_TIME_ROLE ( 'classification_date' ) ;
#103 = DATE_AND_TIME ( #278, #85 ) ;
#104 = DATE_TIME_ROLE ( 'classification_date' ) ;
#105 = DATE_AND_TIME ( #334, #173 ) ;
#106 = CARTESIAN_POINT ( 'NONE',  ( -24.74873734152929217, 0.000000000000000000, 17.50000000000000000 ) ) ;
#107 = CARTESIAN_POINT ( 'NONE',  ( 24.74873734152929217, -3.025926310689071696E-15, -17.50000000000000000 ) ) ;
#108 = EDGE_LOOP ( 'NONE', ( #168, #233, #251 ) ) ;
#109 = AXIS2_PLACEMENT_3D ( 'NONE', #54, #162, #294 ) ;
#110 = PERSON_AND_ORGANIZATION ( #193, #75 ) ;
#111 = LOCAL_TIME ( 9, 50, 14.00000000000000000, #229 ) ;
#112 = CC_DESIGN_DATE_AND_TIME_ASSIGNMENT ( #280, #104, ( #327 ) ) ;
#113 = CC_DESIGN_APPROVAL ( #341, ( #7 ) ) ;
#114 = CALENDAR_DATE ( 2021, 20, 9 ) ;
#115 = LOCAL_TIME ( 9, 50, 14.00000000000000000, #265 ) ;
#116 = VECTOR ( 'NONE', #182, 1000.000000000000000 ) ;
#117 = COORDINATED_UNIVERSAL_TIME_OFFSET ( 5, 0, .BEHIND. ) ;
#118 = PERSON_AND_ORGANIZATION ( #193, #75 ) ;
#119 = SHAPE_REPRESENTATION ( '35x35 Right Angle Prism Master', ( #307 ), #259 ) ;
#120 = CC_DESIGN_PERSON_AND_ORGANIZATION_ASSIGNMENT ( #38, #343, ( #30 ) ) ;
#121 = APPLICATION_CONTEXT ( 'configuration controlled 3d designs of mechanical parts and assemblies' ) ;
#122 = DATE_AND_TIME ( #144, #348 ) ;
#123 = APPROVAL_PERSON_ORGANIZATION ( #69, #88, #96 ) ;
#124 = ORIENTED_EDGE ( 'NONE', *, *, #244, .T. ) ;
#125 = PERSON_AND_ORGANIZATION_ROLE ( 'creator' ) ;
#126 = AXIS2_PLACEMENT_3D ( 'NONE', #272, #26, #164 ) ;
#127 = DATE_TIME_ROLE ( 'classification_date' ) ;
#128 = APPLICATION_PROTOCOL_DEFINITION ( 'international standard', 'config_control_design', 1994, #100 ) ;
#129 = APPROVAL_DATE_TIME ( #277, #88 ) ;
#130 = SHAPE_DEFINITION_REPRESENTATION ( #269, #119 ) ;
#131 = VERTEX_POINT ( 'NONE', #355 ) ;
#132 = CARTESIAN_POINT ( 'NONE',  ( 24.74873734152929217, -3.025926310689071696E-15, 17.50000000000000000 ) ) ;
#133 = APPROVAL_DATE_TIME ( #31, #303 ) ;
#134 = CC_DESIGN_PERSON_AND_ORGANIZATION_ASSIGNMENT ( #118, #317, ( #7 ) ) ;
#135 = DATE_AND_TIME ( #304, #3 ) ;
#136 = DIRECTION ( 'NONE',  ( 0.7071067811865512365, 0.7071067811865439090, 0.000000000000000000 ) ) ;
#137 = APPROVAL_ROLE ( '' ) ;
#138 = PRODUCT ( '35mm BEAMSPLITTER CUBE TS_48877', '35mm BEAMSPLITTER CUBE TS_48877', '', ( #209 ) ) ;
#139 = PLANE ( 'NONE',  #126 ) ;
#140 = CC_DESIGN_APPROVAL ( #12, ( #221 ) ) ;
#141 = COORDINATED_UNIVERSAL_TIME_OFFSET ( 5, 0, .BEHIND. ) ;
#142 = ORIENTED_EDGE ( 'NONE', *, *, #244, .F. ) ;
#143 =( GEOMETRIC_REPRESENTATION_CONTEXT ( 3 ) GLOBAL_UNCERTAINTY_ASSIGNED_CONTEXT ( ( #299 ) ) GLOBAL_UNIT_ASSIGNED_CONTEXT ( ( #176, #154, #9 ) ) REPRESENTATION_CONTEXT ( 'NONE', 'WORKASPACE' ) );
#144 = CALENDAR_DATE ( 2021, 20, 9 ) ;
#145 = COORDINATED_UNIVERSAL_TIME_OFFSET ( 5, 0, .BEHIND. ) ;
#146 = PRODUCT_DEFINITION_SHAPE ( 'NONE', 'NONE',  #360 ) ;
#147 = APPROVAL_PERSON_ORGANIZATION ( #225, #354, #352 ) ;
#148 = PERSON_AND_ORGANIZATION_ROLE ( 'creator' ) ;
#149 = CC_DESIGN_APPROVAL ( #24, ( #156 ) ) ;
#150 = CARTESIAN_POINT ( 'NONE',  ( 0.000000000000000000, 0.000000000000000000, 0.000000000000000000 ) ) ;
#151 = DIRECTION ( 'NONE',  ( 0.000000000000000000, 0.000000000000000000, 1.000000000000000000 ) ) ;
#152 = PERSON_AND_ORGANIZATION_ROLE ( 'design_owner' ) ;
#153 = DATE_AND_TIME ( #196, #115 ) ;
#154 =( NAMED_UNIT ( * ) PLANE_ANGLE_UNIT ( ) SI_UNIT ( $, .RADIAN. ) );
#155 = PLANE ( 'NONE',  #206 ) ;
#156 = SECURITY_CLASSIFICATION ( '', '', #183 ) ;
#157 = LOCAL_TIME ( 9, 50, 14.00000000000000000, #141 ) ;
#158 = ADVANCED_FACE ( 'NONE', ( #301 ), #155, .F. ) ;
#159 = SHAPE_REPRESENTATION_RELATIONSHIP ( 'NONE' , 'NONE' ,  #119, #302 ) ;
#160 =( REPRESENTATION_RELATIONSHIP ('NONE','NONE', #238, #119 ) REPRESENTATION_RELATIONSHIP_WITH_TRANSFORMATION ( #292 )SHAPE_REPRESENTATION_RELATIONSHIP( ) );
#161 = VERTEX_POINT ( 'NONE', #51 ) ;
#162 = DIRECTION ( 'NONE',  ( -0.7071067811865440200, -0.7071067811865511255, 0.000000000000000000 ) ) ;
#163 = CC_DESIGN_APPROVAL ( #303, ( #282 ) ) ;
#164 = DIRECTION ( 'NONE',  ( 1.000000000000000000, 0.000000000000000000, -0.000000000000000000 ) ) ;
#165 = APPROVAL_DATE_TIME ( #135, #180 ) ;
#166 = EDGE_CURVE ( 'NONE', #254, #101, #23, .T. ) ;
#167 = PERSON_AND_ORGANIZATION ( #193, #75 ) ;
#168 = ORIENTED_EDGE ( 'NONE', *, *, #58, .F. ) ;
#169 = EDGE_CURVE ( 'NONE', #93, #101, #242, .T. ) ;
#170 = LINE ( 'NONE', #293, #240 ) ;
#171 = CC_DESIGN_SECURITY_CLASSIFICATION ( #156, ( #221 ) ) ;
#172 = PERSON_AND_ORGANIZATION ( #193, #75 ) ;
#173 = LOCAL_TIME ( 9, 50, 14.00000000000000000, #298 ) ;
#174 = EDGE_CURVE ( 'NONE', #131, #297, #305, .T. ) ;
#175 = APPROVAL_ROLE ( '' ) ;
#176 =( LENGTH_UNIT ( ) NAMED_UNIT ( * ) SI_UNIT ( .MILLI., .METRE. ) );
#177 = APPROVAL_DATE_TIME ( #246, #312 ) ;
#178 = APPLICATION_PROTOCOL_DEFINITION ( 'international standard', 'config_control_design', 1994, #121 ) ;
#179 = ORIENTED_EDGE ( 'NONE', *, *, #237, .F. ) ;
#180 = APPROVAL ( #41, 'UNSPECIFIED' ) ;
#181 = EDGE_LOOP ( 'NONE', ( #89, #219, #252 ) ) ;
#182 = DIRECTION ( 'NONE',  ( 1.000000000000000000, -6.113294324740066334E-17, 0.000000000000000000 ) ) ;
#183 = SECURITY_CLASSIFICATION_LEVEL ( 'unclassified' ) ;
#184 = CARTESIAN_POINT ( 'NONE',  ( 24.74873734152929217, -3.025926310689071696E-15, 17.50000000000000000 ) ) ;
#185 = DIRECTION ( 'NONE',  ( 1.000000000000000000, 0.000000000000000000, -0.000000000000000000 ) ) ;
#186 = PERSON_AND_ORGANIZATION ( #248, #239 ) ;
#187 = SECURITY_CLASSIFICATION_LEVEL ( 'unclassified' ) ;
#188 = PERSON_AND_ORGANIZATION ( #193, #75 ) ;
#189 = DATE_TIME_ROLE ( 'classification_date' ) ;
#190 = DIRECTION ( 'NONE',  ( -0.000000000000000000, -0.000000000000000000, -1.000000000000000000 ) ) ;
#191 = DIRECTION ( 'NONE',  ( -0.7071067811865512365, -0.7071067811865439090, 0.000000000000000000 ) ) ;
#192 = PERSON_AND_ORGANIZATION ( #193, #75 ) ;
#193 = PERSON ( 'UNSPECIFIED', 'UNSPECIFIED', 'UNSPECIFIED', ('UNSPECIFIED'), ('UNSPECIFIED'), ('UNSPECIFIED') ) ;
#194 = EDGE_LOOP ( 'NONE', ( #306, #142, #179, #33 ) ) ;
#195 = PERSON_AND_ORGANIZATION ( #193, #75 ) ;
#196 = CALENDAR_DATE ( 2021, 20, 9 ) ;
#197 = CC_DESIGN_PERSON_AND_ORGANIZATION_ASSIGNMENT ( #172, #314, ( #156 ) ) ;
#198 = MANIFOLD_SOLID_BREP ( 'Boss-Extrude1', #81 ) ;
#199 = LOCAL_TIME ( 9, 50, 14.00000000000000000, #77 ) ;
#200 = CC_DESIGN_APPROVAL ( #88, ( #268 ) ) ;
#201 = DIRECTION ( 'NONE',  ( 1.000000000000000000, 0.000000000000000000, 0.000000000000000000 ) ) ;
#202 = ITEM_DEFINED_TRANSFORMATION ( 'NONE', 'NONE', #34,  #307 ) ;
#203 = DESIGN_CONTEXT ( 'detailed design', #121, 'design' ) ;
#204 = PERSON_AND_ORGANIZATION ( #193, #75 ) ;
#205 = SECURITY_CLASSIFICATION_LEVEL ( 'unclassified' ) ;
#206 = AXIS2_PLACEMENT_3D ( 'NONE', #325, #357, #216 ) ;
#207 = LINE ( 'NONE', #18, #86 ) ;
#208 = APPROVAL_STATUS ( 'not_yet_approved' ) ;
#209 = MECHANICAL_CONTEXT ( 'NONE', #94, 'mechanical' ) ;
#210 = DIRECTION ( 'NONE',  ( -0.7071067811865512365, -0.7071067811865439090, 0.000000000000000000 ) ) ;
#211 =( NAMED_UNIT ( * ) SI_UNIT ( $, .STERADIAN. ) SOLID_ANGLE_UNIT ( ) );
#212 = DATE_AND_TIME ( #67, #157 ) ;
#213 = LINE ( 'NONE', #245, #315 ) ;
#214 = ORIENTED_EDGE ( 'NONE', *, *, #169, .F. ) ;
#215 = ADVANCED_FACE ( 'NONE', ( #281 ), #139, .T. ) ;
#216 = DIRECTION ( 'NONE',  ( -1.000000000000000000, 6.113294324740066334E-17, 0.000000000000000000 ) ) ;
#217 = APPROVAL_PERSON_ORGANIZATION ( #186, #303, #137 ) ;
#218 = CARTESIAN_POINT ( 'NONE',  ( 1.298504712866985032E-15, 24.74873734152903282, 17.50000000000000000 ) ) ;
#219 = ORIENTED_EDGE ( 'NONE', *, *, #237, .T. ) ;
#220 = DIRECTION ( 'NONE',  ( -0.000000000000000000, -0.000000000000000000, -1.000000000000000000 ) ) ;
#221 = PRODUCT_DEFINITION_FORMATION_WITH_SPECIFIED_SOURCE ( 'ANY', '', #279, .NOT_KNOWN. ) ;
#222 = COORDINATED_UNIVERSAL_TIME_OFFSET ( 5, 0, .BEHIND. ) ;
#223 = APPROVAL_PERSON_ORGANIZATION ( #98, #180, #286 ) ;
#224 = FACE_OUTER_BOUND ( 'NONE', #194, .T. ) ;
#225 = PERSON_AND_ORGANIZATION ( #330, #60 ) ;
#226 = UNCERTAINTY_MEASURE_WITH_UNIT (LENGTH_MEASURE( 1.000000000000000082E-05 ), #22, 'distance_accuracy_value', 'NONE');
#227 = DATE_AND_TIME ( #250, #289 ) ;
#228 = AXIS2_PLACEMENT_3D ( 'NONE', #270, #291, #136 ) ;
#229 = COORDINATED_UNIVERSAL_TIME_OFFSET ( 5, 0, .BEHIND. ) ;
#230 = CC_DESIGN_SECURITY_CLASSIFICATION ( #327, ( #361 ) ) ;
#231 = CALENDAR_DATE ( 2021, 20, 9 ) ;
#232 = APPROVAL_STATUS ( 'not_yet_approved' ) ;
#233 = ORIENTED_EDGE ( 'NONE', *, *, #166, .F. ) ;
#234 = APPLICATION_PROTOCOL_DEFINITION ( 'international standard', 'config_control_design', 1994, #262 ) ;
#235 = CARTESIAN_POINT ( 'NONE',  ( -24.74873734152929217, 0.000000000000000000, -17.50000000000000000 ) ) ;
#236 =( NAMED_UNIT ( * ) PLANE_ANGLE_UNIT ( ) SI_UNIT ( $, .RADIAN. ) );
#237 = EDGE_CURVE ( 'NONE', #131, #161, #213, .T. ) ;
#238 = SHAPE_REPRESENTATION ( '35mm BEAMSPLITTER CUBE TS_48877', ( #351, #34, #300 ), #143 ) ;
#239 = ORGANIZATION ( 'NAUO-ORG1', 'UNSPECIFIED', 'UNSPECIFIED' ) ;
#240 = VECTOR ( 'NONE', #220, 1000.000000000000000 ) ;
#241 = PERSON_AND_ORGANIZATION_ROLE ( 'classification_officer' ) ;
#242 = LINE ( 'NONE', #53, #71 ) ;
#243 = DIRECTION ( 'NONE',  ( -0.000000000000000000, -0.000000000000000000, -1.000000000000000000 ) ) ;
#244 = EDGE_CURVE ( 'NONE', #161, #254, #170, .T. ) ;
#245 = CARTESIAN_POINT ( 'NONE',  ( 1.298504712866985032E-15, 24.74873734152903282, 17.50000000000000000 ) ) ;
#246 = DATE_AND_TIME ( #83, #111 ) ;
#247 = FACE_OUTER_BOUND ( 'NONE', #359, .T. ) ;
#248 = PERSON ( 'NAUO-PER1', 'UNSPECIFIED', 'UNSPECIFIED', ('UNSPECIFIED'), ('UNSPECIFIED'), ('UNSPECIFIED') ) ;
#249 = APPROVAL_PERSON_ORGANIZATION ( #8, #12, #260 ) ;
#250 = CALENDAR_DATE ( 2021, 20, 9 ) ;
#251 = ORIENTED_EDGE ( 'NONE', *, *, #37, .F. ) ;
#252 = ORIENTED_EDGE ( 'NONE', *, *, #29, .T. ) ;
#253 = APPROVAL_DATE_TIME ( #153, #341 ) ;
#254 = VERTEX_POINT ( 'NONE', #235 ) ;
#255 = AXIS2_PLACEMENT_3D ( 'NONE', #150, #70, #201 ) ;
#256 = CALENDAR_DATE ( 2021, 20, 9 ) ;
#257 = APPROVAL_ROLE ( '' ) ;
#258 = APPROVAL_PERSON_ORGANIZATION ( #195, #24, #25 ) ;
#259 =( GEOMETRIC_REPRESENTATION_CONTEXT ( 3 ) GLOBAL_UNCERTAINTY_ASSIGNED_CONTEXT ( ( #226 ) ) GLOBAL_UNIT_ASSIGNED_CONTEXT ( ( #22, #236, #211 ) ) REPRESENTATION_CONTEXT ( 'NONE', 'WORKASPACE' ) );
#260 = APPROVAL_ROLE ( '' ) ;
#261 = PRODUCT_DEFINITION_SHAPE ( 'NONE', 'NONE',  #361 ) ;
#262 = APPLICATION_CONTEXT ( 'configuration controlled 3d designs of mechanical parts and assemblies' ) ;
#263 = CARTESIAN_POINT ( 'NONE',  ( 0.000000000000000000, 0.000000000000000000, 0.000000000000000000 ) ) ;
#264 = DATE_AND_TIME ( #1, #339 ) ;
#265 = COORDINATED_UNIVERSAL_TIME_OFFSET ( 5, 0, .BEHIND. ) ;
#266 = CARTESIAN_POINT ( 'NONE',  ( -24.74873734152929217, 0.000000000000000000, -17.50000000000000000 ) ) ;
#267 = APPROVAL_STATUS ( 'not_yet_approved' ) ;
#268 = PRODUCT_DEFINITION ( 'UNKNOWN', '', #221, #63 ) ;
#269 = PRODUCT_DEFINITION_SHAPE ( 'NONE', 'NONE',  #268 ) ;
#270 = CARTESIAN_POINT ( 'NONE',  ( 1.298504712866985032E-15, 24.74873734152903282, 17.50000000000000000 ) ) ;
#271 = APPROVAL_DATE_TIME ( #264, #12 ) ;
#272 = CARTESIAN_POINT ( 'NONE',  ( 0.000000000000000000, 0.000000000000000000, 17.50000000000000000 ) ) ;
#273 = PERSON_AND_ORGANIZATION_ROLE ( 'classification_officer' ) ;
#274 = CARTESIAN_POINT ( 'NONE',  ( 1.298504712866985032E-15, 24.74873734152903282, -17.50000000000000000 ) ) ;
#275 = CC_DESIGN_DATE_AND_TIME_ASSIGNMENT ( #105, #311, ( #7 ) ) ;
#276 = PERSON_AND_ORGANIZATION ( #193, #75 ) ;
#277 = DATE_AND_TIME ( #61, #356 ) ;
#278 = CALENDAR_DATE ( 2021, 20, 9 ) ;
#279 = PRODUCT ( '35x35 Right Angle Prism Master', '35x35 Right Angle Prism Master', '', ( #347 ) ) ;
#280 = DATE_AND_TIME ( #231, #353 ) ;
#281 = FACE_OUTER_BOUND ( 'NONE', #181, .T. ) ;
#282 = SECURITY_CLASSIFICATION ( '', '', #187 ) ;
#283 = ORIENTED_EDGE ( 'NONE', *, *, #169, .T. ) ;
#284 = PERSON_AND_ORGANIZATION_ROLE ( 'creator' ) ;
#285 = CC_DESIGN_PERSON_AND_ORGANIZATION_ASSIGNMENT ( #225, #241, ( #327 ) ) ;
#286 = APPROVAL_ROLE ( '' ) ;
#287 = APPROVAL_DATE_TIME ( #103, #24 ) ;
#288 = CC_DESIGN_PERSON_AND_ORGANIZATION_ASSIGNMENT ( #167, #44, ( #221 ) ) ;
#289 = LOCAL_TIME ( 9, 50, 14.00000000000000000, #21 ) ;
#290 = PERSON_AND_ORGANIZATION_ROLE ( 'design_owner' ) ;
#291 = DIRECTION ( 'NONE',  ( 0.7071067811865439090, -0.7071067811865512365, 0.000000000000000000 ) ) ;
#292 = ITEM_DEFINED_TRANSFORMATION ( 'NONE', 'NONE', #300,  #307 ) ;
#293 = CARTESIAN_POINT ( 'NONE',  ( -24.74873734152929217, 0.000000000000000000, 17.50000000000000000 ) ) ;
#294 = DIRECTION ( 'NONE',  ( 0.7071067811865511255, -0.7071067811865440200, 0.000000000000000000 ) ) ;
#295 = CARTESIAN_POINT ( 'NONE',  ( 0.000000000000000000, 0.000000000000000000, 0.000000000000000000 ) ) ;
#296 = COORDINATED_UNIVERSAL_TIME_OFFSET ( 5, 0, .BEHIND. ) ;
#297 = VERTEX_POINT ( 'NONE', #274 ) ;
#298 = COORDINATED_UNIVERSAL_TIME_OFFSET ( 5, 0, .BEHIND. ) ;
#299 = UNCERTAINTY_MEASURE_WITH_UNIT (LENGTH_MEASURE( 1.000000000000000082E-05 ), #176, 'distance_accuracy_value', 'NONE');
#300 = AXIS2_PLACEMENT_3D ( 'NONE', #72, #73, #346 ) ;
#301 = FACE_OUTER_BOUND ( 'NONE', #4, .T. ) ;
#302 = ADVANCED_BREP_SHAPE_REPRESENTATION ( '', ( #198, #307 ), #259 ) ;
#303 = APPROVAL ( #49, 'UNKNOWN' ) ;
#304 = CALENDAR_DATE ( 2021, 20, 9 ) ;
#305 = LINE ( 'NONE', #218, #90 ) ;
#306 = ORIENTED_EDGE ( 'NONE', *, *, #37, .T. ) ;
#307 = AXIS2_PLACEMENT_3D ( 'NONE', #349, #318, #68 ) ;
#308 = LOCAL_TIME ( 9, 50, 14.00000000000000000, #332 ) ;
#309 = VECTOR ( 'NONE', #313, 1000.000000000000114 ) ;
#310 = APPROVAL_STATUS ( 'not_yet_approved' ) ;
#311 = DATE_TIME_ROLE ( 'creation_date' ) ;
#312 = APPROVAL ( #310, 'UNSPECIFIED' ) ;
#313 = DIRECTION ( 'NONE',  ( -0.7071067811865511255, 0.7071067811865439090, 0.000000000000000000 ) ) ;
#314 = PERSON_AND_ORGANIZATION_ROLE ( 'classification_officer' ) ;
#315 = VECTOR ( 'NONE', #191, 1000.000000000000000 ) ;
#316 = LINE ( 'NONE', #106, #116 ) ;
#317 = PERSON_AND_ORGANIZATION_ROLE ( 'creator' ) ;
#318 = DIRECTION ( 'NONE',  ( 0.000000000000000000, 0.000000000000000000, 1.000000000000000000 ) ) ;
#319 = COORDINATED_UNIVERSAL_TIME_OFFSET ( 5, 0, .BEHIND. ) ;
#320 = CC_DESIGN_APPROVAL ( #354, ( #327 ) ) ;
#321 = DIRECTION ( 'NONE',  ( -0.7071067811865511255, 0.7071067811865439090, 0.000000000000000000 ) ) ;
#322 = DIRECTION ( 'NONE',  ( 1.000000000000000000, -6.113294324740066334E-17, 0.000000000000000000 ) ) ;
#323 = CC_DESIGN_DATE_AND_TIME_ASSIGNMENT ( #20, #127, ( #156 ) ) ;
#324 = PLANE ( 'NONE',  #228 ) ;
#325 = CARTESIAN_POINT ( 'NONE',  ( -24.74873734152929217, 0.000000000000000000, 17.50000000000000000 ) ) ;
#326 = SECURITY_CLASSIFICATION_LEVEL ( 'unclassified' ) ;
#327 = SECURITY_CLASSIFICATION ( '', '', #326 ) ;
#328 = PRODUCT_DEFINITION_SHAPE ( 'NONE', 'NONE',  #7 ) ;
#329 = VECTOR ( 'NONE', #210, 1000.000000000000000 ) ;
#330 = PERSON ( 'NAUO-PER2', 'UNSPECIFIED', 'UNSPECIFIED', ('UNSPECIFIED'), ('UNSPECIFIED'), ('UNSPECIFIED') ) ;
#331 = CC_DESIGN_SECURITY_CLASSIFICATION ( #48, ( #30 ) ) ;
#332 = COORDINATED_UNIVERSAL_TIME_OFFSET ( 5, 0, .BEHIND. ) ;
#333 = AXIS2_PLACEMENT_3D ( 'NONE', #350, #45, #185 ) ;
#334 = CALENDAR_DATE ( 2021, 20, 9 ) ;
#335 = PRODUCT_RELATED_PRODUCT_CATEGORY ( 'detail', '', ( #279 ) ) ;
#336 = CALENDAR_DATE ( 2021, 20, 9 ) ;
#337 = SHAPE_DEFINITION_REPRESENTATION ( #328, #238 ) ;
#338 = CC_DESIGN_DATE_AND_TIME_ASSIGNMENT ( #227, #102, ( #48 ) ) ;
#339 = LOCAL_TIME ( 9, 50, 14.00000000000000000, #319 ) ;
#340 = PERSON_AND_ORGANIZATION ( #193, #75 ) ;
#341 = APPROVAL ( #232, 'UNSPECIFIED' ) ;
#342 = CONTEXT_DEPENDENT_SHAPE_REPRESENTATION ( #160, #261 ) ;
#343 = PERSON_AND_ORGANIZATION_ROLE ( 'design_supplier' ) ;
#344 = DIRECTION ( 'NONE',  ( 1.000000000000000000, 0.000000000000000000, 0.000000000000000000 ) ) ;
#345 = ORIENTED_EDGE ( 'NONE', *, *, #58, .T. ) ;
#346 = DIRECTION ( 'NONE',  ( -1.000000000000000000, 0.000000000000000000, 0.000000000000000000 ) ) ;
#347 = MECHANICAL_CONTEXT ( 'NONE', #262, 'mechanical' ) ;
#348 = LOCAL_TIME ( 9, 50, 14.00000000000000000, #57 ) ;
#349 = CARTESIAN_POINT ( 'NONE',  ( 0.000000000000000000, 0.000000000000000000, 0.000000000000000000 ) ) ;
#350 = CARTESIAN_POINT ( 'NONE',  ( 0.000000000000000000, 0.000000000000000000, -17.50000000000000000 ) ) ;
#351 = AXIS2_PLACEMENT_3D ( 'NONE', #295, #151, #46 ) ;
#352 = APPROVAL_ROLE ( '' ) ;
#353 = LOCAL_TIME ( 9, 50, 14.00000000000000000, #222 ) ;
#354 = APPROVAL ( #267, 'UNKNOWN' ) ;
#355 = CARTESIAN_POINT ( 'NONE',  ( 1.298504712866985032E-15, 24.74873734152903282, 17.50000000000000000 ) ) ;
#356 = LOCAL_TIME ( 9, 50, 14.00000000000000000, #145 ) ;
#357 = DIRECTION ( 'NONE',  ( 6.113294324740066334E-17, 1.000000000000000000, -0.000000000000000000 ) ) ;
#358 = CC_DESIGN_DATE_AND_TIME_ASSIGNMENT ( #122, #97, ( #268 ) ) ;
#359 = EDGE_LOOP ( 'NONE', ( #345, #91, #76, #283 ) ) ;
#360 = NEXT_ASSEMBLY_USAGE_OCCURRENCE ( 'NAUO1', ' ', ' ', #7, #268, $ ) ;
#361 = NEXT_ASSEMBLY_USAGE_OCCURRENCE ( 'NAUO2', ' ', ' ', #7, #268, $ ) ;
ENDSEC;
END-ISO-10303-21;
