ISO-10303-21;
HEADER;
FILE_DESCRIPTION (( 'STEP AP203' ),
    '1' );
FILE_NAME ('Web Model 68519.STEP',
    '2017-02-01T13:26:31',
    ( '' ),
    ( '' ),
    'SwSTEP 2.0',
    'SolidWorks 2016',
    '' );
FILE_SCHEMA (( 'CONFIG_CONTROL_DESIGN' ));
ENDSEC;

DATA;
#1 = APPLICATION_PROTOCOL_DEFINITION ( 'international standard', 'config_control_design', 1994, #165 ) ;
#2 = PERSON_AND_ORGANIZATION_ROLE ( 'creator' ) ;
#3 = APPROVAL_PERSON_ORGANIZATION ( #131, #61, #137 ) ;
#4 = ORIENTED_EDGE ( 'NONE', *, *, #93, .T. ) ;
#5 = ORIENTED_EDGE ( 'NONE', *, *, #95, .F. ) ;
#6 = ORIENTED_EDGE ( 'NONE', *, *, #175, .T. ) ;
#7 = CARTESIAN_POINT ( 'NONE',  ( 0.0000000000000000000, 0.0000000000000000000, 1.000000000000000000 ) ) ;
#8 = CARTESIAN_POINT ( 'NONE',  ( 0.0000000000000000000, 0.0000000000000000000, 0.0000000000000000000 ) ) ;
#9 =( GEOMETRIC_REPRESENTATION_CONTEXT ( 3 ) GLOBAL_UNCERTAINTY_ASSIGNED_CONTEXT ( ( #34 ) ) GLOBAL_UNIT_ASSIGNED_CONTEXT ( ( #77, #132, #54 ) ) REPRESENTATION_CONTEXT ( 'NONE', 'WORKASPACE' ) );
#10 = DIRECTION ( 'NONE',  ( -0.0000000000000000000, -0.0000000000000000000, -1.000000000000000000 ) ) ;
#11 = CALENDAR_DATE ( 2017, 1, 2 ) ;
#12 = CC_DESIGN_PERSON_AND_ORGANIZATION_ASSIGNMENT ( #164, #122, ( #172 ) ) ;
#13 = DIRECTION ( 'NONE',  ( 0.0000000000000000000, 0.0000000000000000000, 1.000000000000000000 ) ) ;
#14 = ORIENTED_EDGE ( 'NONE', *, *, #142, .T. ) ;
#15 = APPROVAL_ROLE ( '' ) ;
#16 = PERSON_AND_ORGANIZATION_ROLE ( 'design_supplier' ) ;
#17 = APPROVAL_PERSON_ORGANIZATION ( #159, #72, #100 ) ;
#18 = DATE_TIME_ROLE ( 'classification_date' ) ;
#19 = COORDINATED_UNIVERSAL_TIME_OFFSET ( 5, 0, .BEHIND. ) ;
#20 = CC_DESIGN_APPROVAL ( #72, ( #172 ) ) ;
#21 = CARTESIAN_POINT ( 'NONE',  ( 0.0000000000000000000, 0.0000000000000000000, 0.0000000000000000000 ) ) ;
#22 = CARTESIAN_POINT ( 'NONE',  ( 25.00000000000000000, 3.061616997868383000E-015, 0.0000000000000000000 ) ) ;
#23 = CIRCLE ( 'NONE', #154, 25.00000000000000000 ) ;
#24 = ADVANCED_BREP_SHAPE_REPRESENTATION ( 'Web Model 68519', ( #150, #35 ), #9 ) ;
#25 = COORDINATED_UNIVERSAL_TIME_OFFSET ( 5, 0, .BEHIND. ) ;
#26 = CARTESIAN_POINT ( 'NONE',  ( 0.0000000000000000000, 0.0000000000000000000, 1.000000000000000000 ) ) ;
#27 = DIRECTION ( 'NONE',  ( 1.000000000000000000, 0.0000000000000000000, 0.0000000000000000000 ) ) ;
#28 = EDGE_LOOP ( 'NONE', ( #59, #4, #31, #94 ) ) ;
#29 = DIRECTION ( 'NONE',  ( 1.000000000000000000, 0.0000000000000000000, 0.0000000000000000000 ) ) ;
#30 = APPROVAL_DATE_TIME ( #117, #61 ) ;
#31 = ORIENTED_EDGE ( 'NONE', *, *, #103, .T. ) ;
#32 = CC_DESIGN_DATE_AND_TIME_ASSIGNMENT ( #84, #18, ( #172 ) ) ;
#33 = SHAPE_DEFINITION_REPRESENTATION ( #43, #24 ) ;
#34 = UNCERTAINTY_MEASURE_WITH_UNIT (LENGTH_MEASURE( 1.000000000000000100E-005 ), #77, 'distance_accuracy_value', 'NONE');
#35 = AXIS2_PLACEMENT_3D ( 'NONE', #21, #157, #29 ) ;
#36 = PERSON_AND_ORGANIZATION ( #140, #42 ) ;
#37 = DESIGN_CONTEXT ( 'detailed design', #165, 'design' ) ;
#38 = DATE_AND_TIME ( #67, #133 ) ;
#39 = CARTESIAN_POINT ( 'NONE',  ( 0.0000000000000000000, 0.0000000000000000000, 0.0000000000000000000 ) ) ;
#40 = DIRECTION ( 'NONE',  ( 1.000000000000000000, 0.0000000000000000000, 0.0000000000000000000 ) ) ;
#41 = AXIS2_PLACEMENT_3D ( 'NONE', #161, #73, #88 ) ;
#42 = ORGANIZATION ( 'UNSPECIFIED', 'UNSPECIFIED', '' ) ;
#43 = PRODUCT_DEFINITION_SHAPE ( 'NONE', 'NONE',  #121 ) ;
#44 = VERTEX_POINT ( 'NONE', #129 ) ;
#45 = DIRECTION ( 'NONE',  ( 1.000000000000000000, 0.0000000000000000000, -0.0000000000000000000 ) ) ;
#46 = PERSON_AND_ORGANIZATION ( #140, #42 ) ;
#47 = APPROVAL_STATUS ( 'not_yet_approved' ) ;
#48 = CALENDAR_DATE ( 2017, 1, 2 ) ;
#49 = CLOSED_SHELL ( 'NONE', ( #98, #68, #79, #138 ) ) ;
#50 = CC_DESIGN_APPROVAL ( #61, ( #121 ) ) ;
#51 = FACE_OUTER_BOUND ( 'NONE', #85, .T. ) ;
#52 = DIRECTION ( 'NONE',  ( 0.0000000000000000000, 0.0000000000000000000, 1.000000000000000000 ) ) ;
#53 = ORIENTED_EDGE ( 'NONE', *, *, #103, .F. ) ;
#54 =( NAMED_UNIT ( * ) SI_UNIT ( $, .STERADIAN. ) SOLID_ANGLE_UNIT ( ) );
#55 = VECTOR ( 'NONE', #10, 1000.000000000000000 ) ;
#56 = CC_DESIGN_PERSON_AND_ORGANIZATION_ASSIGNMENT ( #46, #2, ( #121 ) ) ;
#57 = CARTESIAN_POINT ( 'NONE',  ( -25.00000000000000000, 0.0000000000000000000, 1.000000000000000000 ) ) ;
#58 = CARTESIAN_POINT ( 'NONE',  ( 0.0000000000000000000, 0.0000000000000000000, 1.000000000000000000 ) ) ;
#59 = ORIENTED_EDGE ( 'NONE', *, *, #70, .F. ) ;
#60 = EDGE_LOOP ( 'NONE', ( #170, #5, #14, #6 ) ) ;
#61 = APPROVAL ( #47, 'UNSPECIFIED' ) ;
#62 = APPROVAL_PERSON_ORGANIZATION ( #82, #108, #15 ) ;
#63 = DIRECTION ( 'NONE',  ( -0.0000000000000000000, -0.0000000000000000000, -1.000000000000000000 ) ) ;
#64 = CARTESIAN_POINT ( 'NONE',  ( -25.00000000000000000, 0.0000000000000000000, 0.0000000000000000000 ) ) ;
#65 = CARTESIAN_POINT ( 'NONE',  ( -25.00000000000000000, 0.0000000000000000000, 1.000000000000000000 ) ) ;
#66 = VERTEX_POINT ( 'NONE', #64 ) ;
#67 = CALENDAR_DATE ( 2017, 1, 2 ) ;
#68 = ADVANCED_FACE ( 'NONE', ( #156 ), #102, .T. ) ;
#69 = COORDINATED_UNIVERSAL_TIME_OFFSET ( 5, 0, .BEHIND. ) ;
#70 = EDGE_CURVE ( 'NONE', #44, #153, #71, .T. ) ;
#71 = CIRCLE ( 'NONE', #101, 25.00000000000000000 ) ;
#72 = APPROVAL ( #135, 'UNSPECIFIED' ) ;
#73 = DIRECTION ( 'NONE',  ( 0.0000000000000000000, 0.0000000000000000000, 1.000000000000000000 ) ) ;
#74 = LOCAL_TIME ( 8, 26, 31.00000000000000000, #155 ) ;
#75 = DIRECTION ( 'NONE',  ( -0.0000000000000000000, -0.0000000000000000000, -1.000000000000000000 ) ) ;
#76 = PERSON_AND_ORGANIZATION ( #140, #42 ) ;
#77 =( LENGTH_UNIT ( ) NAMED_UNIT ( * ) SI_UNIT ( .MILLI., .METRE. ) );
#78 = LINE ( 'NONE', #57, #55 ) ;
#79 = ADVANCED_FACE ( 'NONE', ( #115 ), #173, .T. ) ;
#80 = PERSON_AND_ORGANIZATION_ROLE ( 'design_owner' ) ;
#81 = PRODUCT_RELATED_PRODUCT_CATEGORY ( 'detail', '', ( #105 ) ) ;
#82 = PERSON_AND_ORGANIZATION ( #140, #42 ) ;
#83 = VERTEX_POINT ( 'NONE', #22 ) ;
#84 = DATE_AND_TIME ( #87, #126 ) ;
#85 = EDGE_LOOP ( 'NONE', ( #167, #53 ) ) ;
#86 = CC_DESIGN_DATE_AND_TIME_ASSIGNMENT ( #38, #119, ( #121 ) ) ;
#87 = CALENDAR_DATE ( 2017, 1, 2 ) ;
#88 = DIRECTION ( 'NONE',  ( 1.000000000000000000, 0.0000000000000000000, -0.0000000000000000000 ) ) ;
#89 = DIRECTION ( 'NONE',  ( 0.0000000000000000000, 0.0000000000000000000, 1.000000000000000000 ) ) ;
#90 = APPROVAL_STATUS ( 'not_yet_approved' ) ;
#91 = SECURITY_CLASSIFICATION_LEVEL ( 'unclassified' ) ;
#92 = PRODUCT_DEFINITION_FORMATION_WITH_SPECIFIED_SOURCE ( 'ANY', '', #105, .NOT_KNOWN. ) ;
#93 = EDGE_CURVE ( 'NONE', #44, #83, #97, .T. ) ;
#94 = ORIENTED_EDGE ( 'NONE', *, *, #142, .F. ) ;
#95 = EDGE_CURVE ( 'NONE', #153, #44, #163, .T. ) ;
#96 = DATE_AND_TIME ( #11, #168 ) ;
#97 = LINE ( 'NONE', #112, #125 ) ;
#98 = ADVANCED_FACE ( 'NONE', ( #120 ), #114, .T. ) ;
#99 = PERSON_AND_ORGANIZATION_ROLE ( 'creator' ) ;
#100 = APPROVAL_ROLE ( '' ) ;
#101 = AXIS2_PLACEMENT_3D ( 'NONE', #26, #89, #118 ) ;
#102 = CYLINDRICAL_SURFACE ( 'NONE', #136, 25.00000000000000000 ) ;
#103 = EDGE_CURVE ( 'NONE', #83, #66, #23, .T. ) ;
#104 = EDGE_LOOP ( 'NONE', ( #107, #134 ) ) ;
#105 = PRODUCT ( 'Web Model 68519', 'Web Model 68519', '', ( #149 ) ) ;
#106 = CC_DESIGN_SECURITY_CLASSIFICATION ( #172, ( #92 ) ) ;
#107 = ORIENTED_EDGE ( 'NONE', *, *, #95, .T. ) ;
#108 = APPROVAL ( #90, 'UNSPECIFIED' ) ;
#109 = PERSON_AND_ORGANIZATION ( #140, #42 ) ;
#110 = CARTESIAN_POINT ( 'NONE',  ( 0.0000000000000000000, 0.0000000000000000000, 1.000000000000000000 ) ) ;
#111 = AXIS2_PLACEMENT_3D ( 'NONE', #110, #75, #143 ) ;
#112 = CARTESIAN_POINT ( 'NONE',  ( 25.00000000000000000, 3.061616997868383000E-015, 1.000000000000000000 ) ) ;
#113 = DIRECTION ( 'NONE',  ( 0.0000000000000000000, 0.0000000000000000000, 1.000000000000000000 ) ) ;
#114 = CYLINDRICAL_SURFACE ( 'NONE', #111, 25.00000000000000000 ) ;
#115 = FACE_OUTER_BOUND ( 'NONE', #104, .T. ) ;
#116 = CARTESIAN_POINT ( 'NONE',  ( 0.0000000000000000000, 0.0000000000000000000, 1.000000000000000000 ) ) ;
#117 = DATE_AND_TIME ( #139, #141 ) ;
#118 = DIRECTION ( 'NONE',  ( 1.000000000000000000, 0.0000000000000000000, 0.0000000000000000000 ) ) ;
#119 = DATE_TIME_ROLE ( 'creation_date' ) ;
#120 = FACE_OUTER_BOUND ( 'NONE', #28, .T. ) ;
#121 = PRODUCT_DEFINITION ( 'UNKNOWN', '', #92, #37 ) ;
#122 = PERSON_AND_ORGANIZATION_ROLE ( 'classification_officer' ) ;
#123 = CC_DESIGN_PERSON_AND_ORGANIZATION_ASSIGNMENT ( #109, #99, ( #92 ) ) ;
#124 = AXIS2_PLACEMENT_3D ( 'NONE', #116, #13, #45 ) ;
#125 = VECTOR ( 'NONE', #144, 1000.000000000000000 ) ;
#126 = LOCAL_TIME ( 8, 26, 31.00000000000000000, #19 ) ;
#127 = APPROVAL_DATE_TIME ( #169, #72 ) ;
#128 = CIRCLE ( 'NONE', #162, 25.00000000000000000 ) ;
#129 = CARTESIAN_POINT ( 'NONE',  ( 25.00000000000000000, 3.061616997868383000E-015, 1.000000000000000000 ) ) ;
#130 = CC_DESIGN_APPROVAL ( #108, ( #92 ) ) ;
#131 = PERSON_AND_ORGANIZATION ( #140, #42 ) ;
#132 =( NAMED_UNIT ( * ) PLANE_ANGLE_UNIT ( ) SI_UNIT ( $, .RADIAN. ) );
#133 = LOCAL_TIME ( 8, 26, 31.00000000000000000, #171 ) ;
#134 = ORIENTED_EDGE ( 'NONE', *, *, #70, .T. ) ;
#135 = APPROVAL_STATUS ( 'not_yet_approved' ) ;
#136 = AXIS2_PLACEMENT_3D ( 'NONE', #7, #63, #174 ) ;
#137 = APPROVAL_ROLE ( '' ) ;
#138 = ADVANCED_FACE ( 'NONE', ( #51 ), #158, .F. ) ;
#139 = CALENDAR_DATE ( 2017, 1, 2 ) ;
#140 = PERSON ( 'UNSPECIFIED', 'UNSPECIFIED', 'UNSPECIFIED', ('UNSPECIFIED'), ('UNSPECIFIED'), ('UNSPECIFIED') ) ;
#141 = LOCAL_TIME ( 8, 26, 31.00000000000000000, #69 ) ;
#142 = EDGE_CURVE ( 'NONE', #153, #66, #78, .T. ) ;
#143 = DIRECTION ( 'NONE',  ( -1.000000000000000000, 0.0000000000000000000, 0.0000000000000000000 ) ) ;
#144 = DIRECTION ( 'NONE',  ( -0.0000000000000000000, -0.0000000000000000000, -1.000000000000000000 ) ) ;
#145 = AXIS2_PLACEMENT_3D ( 'NONE', #58, #146, #147 ) ;
#146 = DIRECTION ( 'NONE',  ( 0.0000000000000000000, 0.0000000000000000000, 1.000000000000000000 ) ) ;
#147 = DIRECTION ( 'NONE',  ( 1.000000000000000000, 0.0000000000000000000, 0.0000000000000000000 ) ) ;
#148 = APPLICATION_PROTOCOL_DEFINITION ( 'international standard', 'config_control_design', 1994, #166 ) ;
#149 = MECHANICAL_CONTEXT ( 'NONE', #166, 'mechanical' ) ;
#150 = MANIFOLD_SOLID_BREP ( 'Extrude1', #49 ) ;
#151 = APPROVAL_DATE_TIME ( #96, #108 ) ;
#152 = CC_DESIGN_PERSON_AND_ORGANIZATION_ASSIGNMENT ( #36, #80, ( #105 ) ) ;
#153 = VERTEX_POINT ( 'NONE', #65 ) ;
#154 = AXIS2_PLACEMENT_3D ( 'NONE', #39, #52, #27 ) ;
#155 = COORDINATED_UNIVERSAL_TIME_OFFSET ( 5, 0, .BEHIND. ) ;
#156 = FACE_OUTER_BOUND ( 'NONE', #60, .T. ) ;
#157 = DIRECTION ( 'NONE',  ( 0.0000000000000000000, 0.0000000000000000000, 1.000000000000000000 ) ) ;
#158 = PLANE ( 'NONE',  #41 ) ;
#159 = PERSON_AND_ORGANIZATION ( #140, #42 ) ;
#160 = CC_DESIGN_PERSON_AND_ORGANIZATION_ASSIGNMENT ( #76, #16, ( #92 ) ) ;
#161 = CARTESIAN_POINT ( 'NONE',  ( 0.0000000000000000000, 0.0000000000000000000, 0.0000000000000000000 ) ) ;
#162 = AXIS2_PLACEMENT_3D ( 'NONE', #8, #113, #40 ) ;
#163 = CIRCLE ( 'NONE', #145, 25.00000000000000000 ) ;
#164 = PERSON_AND_ORGANIZATION ( #140, #42 ) ;
#165 = APPLICATION_CONTEXT ( 'configuration controlled 3d designs of mechanical parts and assemblies' ) ;
#166 = APPLICATION_CONTEXT ( 'configuration controlled 3d designs of mechanical parts and assemblies' ) ;
#167 = ORIENTED_EDGE ( 'NONE', *, *, #175, .F. ) ;
#168 = LOCAL_TIME ( 8, 26, 31.00000000000000000, #25 ) ;
#169 = DATE_AND_TIME ( #48, #74 ) ;
#170 = ORIENTED_EDGE ( 'NONE', *, *, #93, .F. ) ;
#171 = COORDINATED_UNIVERSAL_TIME_OFFSET ( 5, 0, .BEHIND. ) ;
#172 = SECURITY_CLASSIFICATION ( '', '', #91 ) ;
#173 = PLANE ( 'NONE',  #124 ) ;
#174 = DIRECTION ( 'NONE',  ( -1.000000000000000000, 0.0000000000000000000, 0.0000000000000000000 ) ) ;
#175 = EDGE_CURVE ( 'NONE', #66, #83, #128, .T. ) ;
ENDSEC;
END-ISO-10303-21;
