ISO-10303-21;
HEADER;
FILE_DESCRIPTION (( 'STEP AP203' ),
    '1' );
FILE_NAME ('20111-E0W.STEP',
    '2009-09-14T20:26:58',
    ( 'Admin' ),
    ( 'Thorlabs, Inc.' ),
    'SwSTEP 2.0',
    'SolidWorks 2007',
    '' );
FILE_SCHEMA (( 'CONFIG_CONTROL_DESIGN' ));
ENDSEC;

DATA;
#1 = DIRECTION ( 'NONE',  ( 1.000000000000000000, 1.224606353822377300E-016, 3.749151804555343600E-032 ) ) ;
#2 = APPROVAL_DATE_TIME ( #3, #168 ) ;
#3 = DATE_AND_TIME ( #4, #7 ) ;
#4 = CALENDAR_DATE ( 2009, 14, 9 ) ;
#5 = DIRECTION ( 'NONE',  ( -1.224606353822377300E-016, 1.000000000000000000, 0.0000000000000000000 ) ) ;
#6 = APPROVAL_PERSON_ORGANIZATION ( #170, #168, #167 ) ;
#7 = LOCAL_TIME ( 16, 26, 58.00000000000000000, #8 ) ;
#8 = COORDINATED_UNIVERSAL_TIME_OFFSET ( 5, 0, .BEHIND. ) ;
#9 = CC_DESIGN_APPROVAL ( #168, ( #180 ) ) ;
#10 = VERTEX_POINT ( 'NONE', #50 ) ;
#11 = ADVANCED_FACE ( 'NONE', ( #87 ), #77, .T. ) ;
#12 = EDGE_LOOP ( 'NONE', ( #13, #17, #66, #16 ) ) ;
#13 = ORIENTED_EDGE ( 'NONE', *, *, #49, .F. ) ;
#14 = ADVANCED_FACE ( 'NONE', ( #78 ), #73, .T. ) ;
#15 = EDGE_CURVE ( 'NONE', #10, #115, #51, .T. ) ;
#16 = ORIENTED_EDGE ( 'NONE', *, *, #15, .F. ) ;
#17 = ORIENTED_EDGE ( 'NONE', *, *, #18, .T. ) ;
#18 = EDGE_CURVE ( 'NONE', #47, #46, #85, .T. ) ;
#19 = VECTOR ( 'NONE', #38, 1000.000000000000000 ) ;
#20 = CARTESIAN_POINT ( 'NONE',  ( 0.0000000000000000000, 12.69999999999999900, -1.019999999999996200 ) ) ;
#21 = LINE ( 'NONE', #20, #19 ) ;
#22 = DIRECTION ( 'NONE',  ( 0.0000000000000000000, 3.061515884555943100E-016, -1.000000000000000000 ) ) ;
#23 = VECTOR ( 'NONE', #22, 1000.000000000000000 ) ;
#24 = CARTESIAN_POINT ( 'NONE',  ( 1.555250069354419100E-015, -12.69999999999999900, -1.020000000000004000 ) ) ;
#25 = LINE ( 'NONE', #24, #23 ) ;
#26 = CARTESIAN_POINT ( 'NONE',  ( 1.555250069353008800E-015, -12.69999999998889700, 0.9842037735729963800 ) ) ;
#27 = ADVANCED_FACE ( 'NONE', ( #67 ), #80, .T. ) ;
#28 = CARTESIAN_POINT ( 'NONE',  ( 0.0000000000000000000, 2.751027965001463800E-013, -2251.889000000000100 ) ) ;
#29 = AXIS2_PLACEMENT_3D ( 'NONE', #28, #1, #5 ) ;
#30 = CIRCLE ( 'NONE', #29, 2252.909000000000600 ) ;
#31 = CC_DESIGN_SECURITY_CLASSIFICATION ( #180, ( #157 ) ) ;
#32 = CARTESIAN_POINT ( 'NONE',  ( 0.0000000000000000000, -2.766825386965773800E-013, 1.020000000000465000 ) ) ;
#33 = DIRECTION ( 'NONE',  ( 0.0000000000000000000, 0.0000000000000000000, 1.000000000000000000 ) ) ;
#34 = DIRECTION ( 'NONE',  ( -1.000000000000000000, 0.0000000000000000000, 0.0000000000000000000 ) ) ;
#35 = CARTESIAN_POINT ( 'NONE',  ( 0.0000000000000000000, 2.751027965001463800E-013, -2251.889000000000100 ) ) ;
#36 = AXIS2_PLACEMENT_3D ( 'NONE', #35, #34, #33 ) ;
#37 = CIRCLE ( 'NONE', #36, 2252.909000000000600 ) ;
#38 = DIRECTION ( 'NONE',  ( 0.0000000000000000000, 3.061515884555943100E-016, -1.000000000000000000 ) ) ;
#39 = CLOSED_SHELL ( 'NONE', ( #42, #11, #14, #27, #40 ) ) ;
#40 = ADVANCED_FACE ( 'NONE', ( #60 ), #56, .T. ) ;
#41 = ORIENTED_EDGE ( 'NONE', *, *, #79, .T. ) ;
#42 = ADVANCED_FACE ( 'NONE', ( #55 ), #102, .T. ) ;
#43 = ORIENTED_EDGE ( 'NONE', *, *, #44, .T. ) ;
#44 = EDGE_CURVE ( 'NONE', #46, #47, #96, .T. ) ;
#45 = ORIENTED_EDGE ( 'NONE', *, *, #18, .F. ) ;
#46 = VERTEX_POINT ( 'NONE', #97 ) ;
#47 = VERTEX_POINT ( 'NONE', #26 ) ;
#48 = ORIENTED_EDGE ( 'NONE', *, *, #49, .T. ) ;
#49 = EDGE_CURVE ( 'NONE', #47, #10, #25, .T. ) ;
#50 = CARTESIAN_POINT ( 'NONE',  ( 1.555250069354419100E-015, -12.69999999999999900, -1.020000000000007800 ) ) ;
#51 = CIRCLE ( 'NONE', #70, 12.69999999999999900 ) ;
#52 = CARTESIAN_POINT ( 'NONE',  ( 0.0000000000000000000, -7.789120266340900600E-016, 0.9842037735729963800 ) ) ;
#53 = DIRECTION ( 'NONE',  ( 0.0000000000000000000, 1.000000000000000000, 3.061515884555943100E-016 ) ) ;
#54 = DIRECTION ( 'NONE',  ( 0.0000000000000000000, 3.061515884555943100E-016, -1.000000000000000000 ) ) ;
#55 = FACE_OUTER_BOUND ( 'NONE', #107, .T. ) ;
#56 = CYLINDRICAL_SURFACE ( 'NONE', #106, 12.69999999999999900 ) ;
#57 = DIRECTION ( 'NONE',  ( 0.0000000000000000000, 1.000000000000000000, 3.942362606302007700E-016 ) ) ;
#58 = DIRECTION ( 'NONE',  ( 1.000000000000000000, 0.0000000000000000000, 0.0000000000000000000 ) ) ;
#59 = AXIS2_PLACEMENT_3D ( 'NONE', #81, #58, #57 ) ;
#60 = FACE_OUTER_BOUND ( 'NONE', #12, .T. ) ;
#61 = ORIENTED_EDGE ( 'NONE', *, *, #44, .F. ) ;
#62 = EDGE_CURVE ( 'NONE', #46, #115, #21, .T. ) ;
#63 = EDGE_LOOP ( 'NONE', ( #64, #41, #61 ) ) ;
#64 = ORIENTED_EDGE ( 'NONE', *, *, #65, .F. ) ;
#65 = EDGE_CURVE ( 'NONE', #72, #46, #37, .T. ) ;
#66 = ORIENTED_EDGE ( 'NONE', *, *, #62, .T. ) ;
#67 = FACE_OUTER_BOUND ( 'NONE', #89, .T. ) ;
#68 = DIRECTION ( 'NONE',  ( 0.0000000000000000000, 1.000000000000000000, 3.073328992872296400E-016 ) ) ;
#69 = DIRECTION ( 'NONE',  ( 0.0000000000000000000, 3.061515884555943100E-016, -1.000000000000000000 ) ) ;
#70 = AXIS2_PLACEMENT_3D ( 'NONE', #111, #69, #68 ) ;
#71 = ORIENTED_EDGE ( 'NONE', *, *, #114, .T. ) ;
#72 = VERTEX_POINT ( 'NONE', #32 ) ;
#73 = PLANE ( 'NONE',  #110 ) ;
#74 = DIRECTION ( 'NONE',  ( 0.0000000000000000000, 1.000000000000000000, 3.942362606302007700E-016 ) ) ;
#75 = DIRECTION ( 'NONE',  ( 1.000000000000000000, 0.0000000000000000000, 0.0000000000000000000 ) ) ;
#76 = AXIS2_PLACEMENT_3D ( 'NONE', #86, #75, #74 ) ;
#77 = SPHERICAL_SURFACE ( 'NONE', #76, 2252.909000000000600 ) ;
#78 = FACE_OUTER_BOUND ( 'NONE', #90, .T. ) ;
#79 = EDGE_CURVE ( 'NONE', #72, #47, #30, .T. ) ;
#80 = SPHERICAL_SURFACE ( 'NONE', #59, 2252.909000000000600 ) ;
#81 = CARTESIAN_POINT ( 'NONE',  ( 0.0000000000000000000, 2.751027965001463800E-013, -2251.889000000000100 ) ) ;
#82 = DIRECTION ( 'NONE',  ( 0.0000000000000000000, 1.000000000000000000, 3.073328992872295900E-016 ) ) ;
#83 = DIRECTION ( 'NONE',  ( 0.0000000000000000000, 3.061515884555943100E-016, -1.000000000000000000 ) ) ;
#84 = AXIS2_PLACEMENT_3D ( 'NONE', #52, #83, #82 ) ;
#85 = CIRCLE ( 'NONE', #84, 12.70000000000000100 ) ;
#86 = CARTESIAN_POINT ( 'NONE',  ( 0.0000000000000000000, 2.751027965001463800E-013, -2251.889000000000100 ) ) ;
#87 = FACE_OUTER_BOUND ( 'NONE', #63, .T. ) ;
#88 = ORIENTED_EDGE ( 'NONE', *, *, #65, .T. ) ;
#89 = EDGE_LOOP ( 'NONE', ( #91, #88, #45 ) ) ;
#90 = EDGE_LOOP ( 'NONE', ( #71, #112 ) ) ;
#91 = ORIENTED_EDGE ( 'NONE', *, *, #79, .F. ) ;
#92 = DIRECTION ( 'NONE',  ( 0.0000000000000000000, 1.000000000000000000, 3.073328992872295900E-016 ) ) ;
#93 = DIRECTION ( 'NONE',  ( 0.0000000000000000000, 3.061515884555943100E-016, -1.000000000000000000 ) ) ;
#94 = CARTESIAN_POINT ( 'NONE',  ( 0.0000000000000000000, -7.789120266340900600E-016, 0.9842037735729963800 ) ) ;
#95 = AXIS2_PLACEMENT_3D ( 'NONE', #94, #93, #92 ) ;
#96 = CIRCLE ( 'NONE', #95, 12.70000000000000100 ) ;
#97 = CARTESIAN_POINT ( 'NONE',  ( 0.0000000000000000000, 12.69999999998848500, 0.9842037735730002600 ) ) ;
#98 = DIRECTION ( 'NONE',  ( 0.0000000000000000000, 1.000000000000000000, 3.073328992872296400E-016 ) ) ;
#99 = DIRECTION ( 'NONE',  ( 0.0000000000000000000, 3.061515884555943100E-016, -1.000000000000000000 ) ) ;
#100 = CARTESIAN_POINT ( 'NONE',  ( 0.0000000000000000000, -1.653218577660209100E-016, -1.020000000000000000 ) ) ;
#101 = AXIS2_PLACEMENT_3D ( 'NONE', #100, #99, #98 ) ;
#102 = CYLINDRICAL_SURFACE ( 'NONE', #101, 12.69999999999999900 ) ;
#103 = DIRECTION ( 'NONE',  ( 0.0000000000000000000, 1.000000000000000000, 3.073328992872296400E-016 ) ) ;
#104 = DIRECTION ( 'NONE',  ( 0.0000000000000000000, 3.061515884555943100E-016, -1.000000000000000000 ) ) ;
#105 = CARTESIAN_POINT ( 'NONE',  ( 0.0000000000000000000, -1.653218577660209100E-016, -1.020000000000000000 ) ) ;
#106 = AXIS2_PLACEMENT_3D ( 'NONE', #105, #104, #103 ) ;
#107 = EDGE_LOOP ( 'NONE', ( #43, #48, #113, #116 ) ) ;
#108 = MANIFOLD_SOLID_BREP ( 'NONE', #39 ) ;
#109 = CARTESIAN_POINT ( 'NONE',  ( 0.0000000000000000000, -1.653218577660203200E-016, -1.020000000000002000 ) ) ;
#110 = AXIS2_PLACEMENT_3D ( 'NONE', #109, #54, #53 ) ;
#111 = CARTESIAN_POINT ( 'NONE',  ( 0.0000000000000000000, -1.653218577660197300E-016, -1.020000000000004000 ) ) ;
#112 = ORIENTED_EDGE ( 'NONE', *, *, #15, .T. ) ;
#113 = ORIENTED_EDGE ( 'NONE', *, *, #114, .F. ) ;
#114 = EDGE_CURVE ( 'NONE', #115, #10, #195, .T. ) ;
#115 = VERTEX_POINT ( 'NONE', #139 ) ;
#116 = ORIENTED_EDGE ( 'NONE', *, *, #62, .F. ) ;
#117 =( LENGTH_UNIT ( ) NAMED_UNIT ( * ) SI_UNIT ( .MILLI., .METRE. ) );
#118 = AXIS2_PLACEMENT_3D ( 'NONE', #197, #136, #135 ) ;
#119 = DIRECTION ( 'NONE',  ( 0.0000000000000000000, 3.061515884555943100E-016, -1.000000000000000000 ) ) ;
#120 = PERSON_AND_ORGANIZATION_ROLE ( 'creator' ) ;
#121 = PERSON_AND_ORGANIZATION ( #165, #163 ) ;
#122 = CC_DESIGN_APPROVAL ( #130, ( #133 ) ) ;
#123 = APPROVAL_DATE_TIME ( #124, #130 ) ;
#124 = DATE_AND_TIME ( #125, #126 ) ;
#125 = CALENDAR_DATE ( 2009, 14, 9 ) ;
#126 = LOCAL_TIME ( 16, 26, 58.00000000000000000, #127 ) ;
#127 = COORDINATED_UNIVERSAL_TIME_OFFSET ( 5, 0, .BEHIND. ) ;
#128 = APPROVAL_PERSON_ORGANIZATION ( #132, #130, #129 ) ;
#129 = APPROVAL_ROLE ( '' ) ;
#130 = APPROVAL ( #131, 'UNSPECIFIED' ) ;
#131 = APPROVAL_STATUS ( 'not_yet_approved' ) ;
#132 = PERSON_AND_ORGANIZATION ( #165, #163 ) ;
#133 = PRODUCT_DEFINITION ( 'UNKNOWN', '', #157, #141 ) ;
#134 = UNCERTAINTY_MEASURE_WITH_UNIT (LENGTH_MEASURE( 1.000000000000000100E-005 ), #117, 'distance_accuracy_value', 'NONE');
#135 = DIRECTION ( 'NONE',  ( 1.000000000000000000, 0.0000000000000000000, 0.0000000000000000000 ) ) ;
#136 = DIRECTION ( 'NONE',  ( 0.0000000000000000000, 0.0000000000000000000, 1.000000000000000000 ) ) ;
#137 = DIRECTION ( 'NONE',  ( 0.0000000000000000000, 1.000000000000000000, 3.073328992872296400E-016 ) ) ;
#138 =( NAMED_UNIT ( * ) PLANE_ANGLE_UNIT ( ) SI_UNIT ( $, .RADIAN. ) );
#139 = CARTESIAN_POINT ( 'NONE',  ( 0.0000000000000000000, 12.69999999999999900, -1.020000000000000000 ) ) ;
#140 = CARTESIAN_POINT ( 'NONE',  ( 0.0000000000000000000, -1.653218577660197300E-016, -1.020000000000004000 ) ) ;
#141 = DESIGN_CONTEXT ( 'detailed design', #143, 'design' ) ;
#142 = APPLICATION_PROTOCOL_DEFINITION ( 'international standard', 'config_control_design', 1994, #143 ) ;
#143 = APPLICATION_CONTEXT ( 'configuration controlled 3d designs of mechanical parts and assemblies' ) ;
#144 = CC_DESIGN_PERSON_AND_ORGANIZATION_ASSIGNMENT ( #162, #145, ( #158 ) ) ;
#145 = PERSON_AND_ORGANIZATION_ROLE ( 'design_owner' ) ;
#146 = CC_DESIGN_APPROVAL ( #154, ( #157 ) ) ;
#147 = APPROVAL_DATE_TIME ( #148, #154 ) ;
#148 = DATE_AND_TIME ( #149, #150 ) ;
#149 = CALENDAR_DATE ( 2009, 14, 9 ) ;
#150 = LOCAL_TIME ( 16, 26, 58.00000000000000000, #151 ) ;
#151 = COORDINATED_UNIVERSAL_TIME_OFFSET ( 5, 0, .BEHIND. ) ;
#152 = APPROVAL_PERSON_ORGANIZATION ( #156, #154, #153 ) ;
#153 = APPROVAL_ROLE ( '' ) ;
#154 = APPROVAL ( #155, 'UNSPECIFIED' ) ;
#155 = APPROVAL_STATUS ( 'not_yet_approved' ) ;
#156 = PERSON_AND_ORGANIZATION ( #165, #163 ) ;
#157 = PRODUCT_DEFINITION_FORMATION_WITH_SPECIFIED_SOURCE ( 'ANY', '', #158, .NOT_KNOWN. ) ;
#158 = PRODUCT ( '20111-E0W', '20111-E0W', '', ( #159 ) ) ;
#159 = MECHANICAL_CONTEXT ( 'NONE', #161, 'mechanical' ) ;
#160 = APPLICATION_PROTOCOL_DEFINITION ( 'international standard', 'config_control_design', 1994, #161 ) ;
#161 = APPLICATION_CONTEXT ( 'configuration controlled 3d designs of mechanical parts and assemblies' ) ;
#162 = PERSON_AND_ORGANIZATION ( #165, #163 ) ;
#163 = ORGANIZATION ( 'UNSPECIFIED', 'UNSPECIFIED', '' ) ;
#164 =( NAMED_UNIT ( * ) SI_UNIT ( $, .STERADIAN. ) SOLID_ANGLE_UNIT ( ) );
#165 = PERSON ( 'UNSPECIFIED', 'UNSPECIFIED', 'UNSPECIFIED', ('UNSPECIFIED'), ('UNSPECIFIED'), ('UNSPECIFIED') ) ;
#166 =( GEOMETRIC_REPRESENTATION_CONTEXT ( 3 ) GLOBAL_UNCERTAINTY_ASSIGNED_CONTEXT ( ( #134 ) ) GLOBAL_UNIT_ASSIGNED_CONTEXT ( ( #117, #138, #164 ) ) REPRESENTATION_CONTEXT ( 'NONE', 'WORKASPACE' ) );
#167 = APPROVAL_ROLE ( '' ) ;
#168 = APPROVAL ( #169, 'UNSPECIFIED' ) ;
#169 = APPROVAL_STATUS ( 'not_yet_approved' ) ;
#170 = PERSON_AND_ORGANIZATION ( #165, #163 ) ;
#171 = CC_DESIGN_DATE_AND_TIME_ASSIGNMENT ( #173, #172, ( #180 ) ) ;
#172 = DATE_TIME_ROLE ( 'classification_date' ) ;
#173 = DATE_AND_TIME ( #174, #175 ) ;
#174 = CALENDAR_DATE ( 2009, 14, 9 ) ;
#175 = LOCAL_TIME ( 16, 26, 58.00000000000000000, #176 ) ;
#176 = COORDINATED_UNIVERSAL_TIME_OFFSET ( 5, 0, .BEHIND. ) ;
#177 = CC_DESIGN_PERSON_AND_ORGANIZATION_ASSIGNMENT ( #179, #178, ( #180 ) ) ;
#178 = PERSON_AND_ORGANIZATION_ROLE ( 'classification_officer' ) ;
#179 = PERSON_AND_ORGANIZATION ( #165, #163 ) ;
#180 = SECURITY_CLASSIFICATION ( '', '', #181 ) ;
#181 = SECURITY_CLASSIFICATION_LEVEL ( 'unclassified' ) ;
#182 = CC_DESIGN_PERSON_AND_ORGANIZATION_ASSIGNMENT ( #184, #183, ( #157 ) ) ;
#183 = PERSON_AND_ORGANIZATION_ROLE ( 'design_supplier' ) ;
#184 = PERSON_AND_ORGANIZATION ( #165, #163 ) ;
#185 = CC_DESIGN_PERSON_AND_ORGANIZATION_ASSIGNMENT ( #187, #186, ( #157 ) ) ;
#186 = PERSON_AND_ORGANIZATION_ROLE ( 'creator' ) ;
#187 = PERSON_AND_ORGANIZATION ( #165, #163 ) ;
#188 = CC_DESIGN_DATE_AND_TIME_ASSIGNMENT ( #190, #189, ( #133 ) ) ;
#189 = DATE_TIME_ROLE ( 'creation_date' ) ;
#190 = DATE_AND_TIME ( #191, #192 ) ;
#191 = CALENDAR_DATE ( 2009, 14, 9 ) ;
#192 = LOCAL_TIME ( 16, 26, 58.00000000000000000, #193 ) ;
#193 = COORDINATED_UNIVERSAL_TIME_OFFSET ( 5, 0, .BEHIND. ) ;
#194 = CC_DESIGN_PERSON_AND_ORGANIZATION_ASSIGNMENT ( #121, #120, ( #133 ) ) ;
#195 = CIRCLE ( 'NONE', #196, 12.69999999999999900 ) ;
#196 = AXIS2_PLACEMENT_3D ( 'NONE', #140, #119, #137 ) ;
#197 = CARTESIAN_POINT ( 'NONE',  ( 0.0000000000000000000, 0.0000000000000000000, 0.0000000000000000000 ) ) ;
#198 = ADVANCED_BREP_SHAPE_REPRESENTATION ( '20111-E0W', ( #108, #118 ), #166 ) ;
#199 = PRODUCT_RELATED_PRODUCT_CATEGORY ( 'detail', '', ( #158 ) ) ;
#200 = PRODUCT_DEFINITION_SHAPE ( 'NONE', 'NONE',  #133 ) ;
#201 = SHAPE_DEFINITION_REPRESENTATION ( #200, #198 ) ;
ENDSEC;
END-ISO-10303-21;
