ISO-10303-21;
HEADER;
FILE_DESCRIPTION (( 'STEP AP203' ),
    '1' );
FILE_NAME ('Web Model 11863_11866.step',
    '2019-01-03T21:48:04',
    ( '' ),
    ( '' ),
    'SwSTEP 2.0',
    'SolidWorks 2016',
    '' );
FILE_SCHEMA (( 'CONFIG_CONTROL_DESIGN' ));
ENDSEC;

DATA;
#1 = DIRECTION ( 'NONE',  ( 0.0000000000000000000, 0.0000000000000000000, 1.000000000000000000 ) ) ;
#2 = PERSON ( 'UNSPECIFIED', 'UNSPECIFIED', 'UNSPECIFIED', ('UNSPECIFIED'), ('UNSPECIFIED'), ('UNSPECIFIED') ) ;
#3 = DATE_TIME_ROLE ( 'classification_date' ) ;
#4 = ADVANCED_FACE ( 'NONE', ( #71 ), #37, .T. ) ;
#5 = PERSON_AND_ORGANIZATION_ROLE ( 'classification_officer' ) ;
#6 = PERSON_AND_ORGANIZATION ( #2, #167 ) ;
#7 = APPROVAL ( #94, 'UNSPECIFIED' ) ;
#8 = COORDINATED_UNIVERSAL_TIME_OFFSET ( 5, 0, .BEHIND. ) ;
#9 = ORIENTED_EDGE ( 'NONE', *, *, #117, .F. ) ;
#10 = VERTEX_POINT ( 'NONE', #11 ) ;
#11 = CARTESIAN_POINT ( 'NONE',  ( 25.39999999999999900, 3.110602869834276900E-015, 1.500000000000000000 ) ) ;
#12 = COORDINATED_UNIVERSAL_TIME_OFFSET ( 5, 0, .BEHIND. ) ;
#13 = ORIENTED_EDGE ( 'NONE', *, *, #143, .T. ) ;
#14 = DIRECTION ( 'NONE',  ( 1.000000000000000000, 0.0000000000000000000, 0.0000000000000000000 ) ) ;
#15 = DIRECTION ( 'NONE',  ( -0.0000000000000000000, -0.0000000000000000000, -1.000000000000000000 ) ) ;
#16 = LOCAL_TIME ( 16, 48, 4.000000000000000000, #22 ) ;
#17 = DIRECTION ( 'NONE',  ( 1.000000000000000000, 0.0000000000000000000, 0.0000000000000000000 ) ) ;
#18 = PLANE ( 'NONE',  #166 ) ;
#19 =( NAMED_UNIT ( * ) SI_UNIT ( $, .STERADIAN. ) SOLID_ANGLE_UNIT ( ) );
#20 = CC_DESIGN_PERSON_AND_ORGANIZATION_ASSIGNMENT ( #120, #110, ( #44 ) ) ;
#21 = CALENDAR_DATE ( 2019, 3, 1 ) ;
#22 = COORDINATED_UNIVERSAL_TIME_OFFSET ( 5, 0, .BEHIND. ) ;
#23 = CALENDAR_DATE ( 2019, 3, 1 ) ;
#24 = ORIENTED_EDGE ( 'NONE', *, *, #143, .F. ) ;
#25 = PERSON_AND_ORGANIZATION ( #2, #167 ) ;
#26 = CARTESIAN_POINT ( 'NONE',  ( 0.0000000000000000000, 0.0000000000000000000, 1.500000000000000000 ) ) ;
#27 = CC_DESIGN_PERSON_AND_ORGANIZATION_ASSIGNMENT ( #70, #83, ( #153 ) ) ;
#28 = DIRECTION ( 'NONE',  ( 0.0000000000000000000, 0.0000000000000000000, 1.000000000000000000 ) ) ;
#29 = DIRECTION ( 'NONE',  ( -1.000000000000000000, 0.0000000000000000000, 0.0000000000000000000 ) ) ;
#30 = PERSON_AND_ORGANIZATION ( #2, #167 ) ;
#31 = EDGE_CURVE ( 'NONE', #10, #130, #165, .T. ) ;
#32 = DATE_TIME_ROLE ( 'creation_date' ) ;
#33 = SHAPE_DEFINITION_REPRESENTATION ( #169, #60 ) ;
#34 = APPROVAL_ROLE ( '' ) ;
#35 = DATE_AND_TIME ( #23, #73 ) ;
#36 = ORIENTED_EDGE ( 'NONE', *, *, #95, .F. ) ;
#37 = CYLINDRICAL_SURFACE ( 'NONE', #125, 25.39999999999999900 ) ;
#38 = APPROVAL ( #175, 'UNSPECIFIED' ) ;
#39 = UNCERTAINTY_MEASURE_WITH_UNIT (LENGTH_MEASURE( 1.000000000000000100E-005 ), #61, 'distance_accuracy_value', 'NONE');
#40 = VERTEX_POINT ( 'NONE', #67 ) ;
#41 = DIRECTION ( 'NONE',  ( -0.0000000000000000000, -0.0000000000000000000, -1.000000000000000000 ) ) ;
#42 = ORIENTED_EDGE ( 'NONE', *, *, #142, .F. ) ;
#43 = CARTESIAN_POINT ( 'NONE',  ( 25.39999999999999900, 3.110602869834276900E-015, -1.500000000000000000 ) ) ;
#44 = PRODUCT_DEFINITION ( 'UNKNOWN', '', #153, #72 ) ;
#45 = CARTESIAN_POINT ( 'NONE',  ( 0.0000000000000000000, 0.0000000000000000000, 0.0000000000000000000 ) ) ;
#46 = APPROVAL_STATUS ( 'not_yet_approved' ) ;
#47 = DIRECTION ( 'NONE',  ( 1.000000000000000000, 0.0000000000000000000, -0.0000000000000000000 ) ) ;
#48 = FACE_OUTER_BOUND ( 'NONE', #50, .T. ) ;
#49 = APPROVAL_PERSON_ORGANIZATION ( #124, #7, #160 ) ;
#50 = EDGE_LOOP ( 'NONE', ( #13, #105 ) ) ;
#51 = AXIS2_PLACEMENT_3D ( 'NONE', #103, #28, #174 ) ;
#52 = LOCAL_TIME ( 16, 48, 4.000000000000000000, #12 ) ;
#53 = DIRECTION ( 'NONE',  ( 1.000000000000000000, 0.0000000000000000000, 0.0000000000000000000 ) ) ;
#54 = PLANE ( 'NONE',  #51 ) ;
#55 = CARTESIAN_POINT ( 'NONE',  ( 0.0000000000000000000, 0.0000000000000000000, 1.500000000000000000 ) ) ;
#56 = APPROVAL_PERSON_ORGANIZATION ( #6, #128, #82 ) ;
#57 = PERSON_AND_ORGANIZATION_ROLE ( 'design_supplier' ) ;
#58 = AXIS2_PLACEMENT_3D ( 'NONE', #55, #41, #29 ) ;
#59 = DIRECTION ( 'NONE',  ( 0.0000000000000000000, 0.0000000000000000000, 1.000000000000000000 ) ) ;
#60 = ADVANCED_BREP_SHAPE_REPRESENTATION ( 'Web Model 11863_11866', ( #80, #145 ), #102 ) ;
#61 =( LENGTH_UNIT ( ) NAMED_UNIT ( * ) SI_UNIT ( .MILLI., .METRE. ) );
#62 = CC_DESIGN_DATE_AND_TIME_ASSIGNMENT ( #35, #32, ( #44 ) ) ;
#63 = LOCAL_TIME ( 16, 48, 4.000000000000000000, #129 ) ;
#64 = PRODUCT ( 'Web Model 11863_11866', 'Web Model 11863_11866', '', ( #148 ) ) ;
#65 = APPROVAL_DATE_TIME ( #150, #7 ) ;
#66 = LOCAL_TIME ( 16, 48, 4.000000000000000000, #8 ) ;
#67 = CARTESIAN_POINT ( 'NONE',  ( -25.39999999999999900, 0.0000000000000000000, 1.500000000000000000 ) ) ;
#68 = CARTESIAN_POINT ( 'NONE',  ( 0.0000000000000000000, 0.0000000000000000000, -1.500000000000000000 ) ) ;
#69 = APPLICATION_PROTOCOL_DEFINITION ( 'international standard', 'config_control_design', 1994, #122 ) ;
#70 = PERSON_AND_ORGANIZATION ( #2, #167 ) ;
#71 = FACE_OUTER_BOUND ( 'NONE', #158, .T. ) ;
#72 = DESIGN_CONTEXT ( 'detailed design', #122, 'design' ) ;
#73 = LOCAL_TIME ( 16, 48, 4.000000000000000000, #136 ) ;
#74 = CC_DESIGN_APPROVAL ( #128, ( #153 ) ) ;
#75 = DIRECTION ( 'NONE',  ( 0.0000000000000000000, 0.0000000000000000000, 1.000000000000000000 ) ) ;
#76 = AXIS2_PLACEMENT_3D ( 'NONE', #133, #75, #14 ) ;
#77 = DIRECTION ( 'NONE',  ( -0.0000000000000000000, -0.0000000000000000000, -1.000000000000000000 ) ) ;
#78 = ORIENTED_EDGE ( 'NONE', *, *, #99, .T. ) ;
#79 = SECURITY_CLASSIFICATION_LEVEL ( 'unclassified' ) ;
#80 = MANIFOLD_SOLID_BREP ( 'Boss-Extrude1', #116 ) ;
#81 = AXIS2_PLACEMENT_3D ( 'NONE', #68, #1, #123 ) ;
#82 = APPROVAL_ROLE ( '' ) ;
#83 = PERSON_AND_ORGANIZATION_ROLE ( 'creator' ) ;
#84 = CC_DESIGN_APPROVAL ( #38, ( #161 ) ) ;
#85 = FACE_OUTER_BOUND ( 'NONE', #112, .T. ) ;
#86 = CYLINDRICAL_SURFACE ( 'NONE', #58, 25.39999999999999900 ) ;
#87 = FACE_OUTER_BOUND ( 'NONE', #146, .T. ) ;
#88 = DIRECTION ( 'NONE',  ( -0.0000000000000000000, -0.0000000000000000000, -1.000000000000000000 ) ) ;
#89 = AXIS2_PLACEMENT_3D ( 'NONE', #111, #59, #92 ) ;
#90 = CALENDAR_DATE ( 2019, 3, 1 ) ;
#91 = ORIENTED_EDGE ( 'NONE', *, *, #31, .F. ) ;
#92 = DIRECTION ( 'NONE',  ( 1.000000000000000000, 0.0000000000000000000, 0.0000000000000000000 ) ) ;
#93 = CIRCLE ( 'NONE', #81, 25.39999999999999900 ) ;
#94 = APPROVAL_STATUS ( 'not_yet_approved' ) ;
#95 = EDGE_CURVE ( 'NONE', #10, #40, #107, .T. ) ;
#96 =( NAMED_UNIT ( * ) PLANE_ANGLE_UNIT ( ) SI_UNIT ( $, .RADIAN. ) );
#97 = APPROVAL_DATE_TIME ( #154, #128 ) ;
#98 = CIRCLE ( 'NONE', #89, 25.39999999999999900 ) ;
#99 = EDGE_CURVE ( 'NONE', #40, #151, #114, .T. ) ;
#100 = DATE_AND_TIME ( #90, #16 ) ;
#101 = VECTOR ( 'NONE', #88, 1000.000000000000000 ) ;
#102 =( GEOMETRIC_REPRESENTATION_CONTEXT ( 3 ) GLOBAL_UNCERTAINTY_ASSIGNED_CONTEXT ( ( #39 ) ) GLOBAL_UNIT_ASSIGNED_CONTEXT ( ( #61, #96, #19 ) ) REPRESENTATION_CONTEXT ( 'NONE', 'WORKASPACE' ) );
#103 = CARTESIAN_POINT ( 'NONE',  ( 0.0000000000000000000, 0.0000000000000000000, 1.500000000000000000 ) ) ;
#104 = PERSON_AND_ORGANIZATION ( #2, #167 ) ;
#105 = ORIENTED_EDGE ( 'NONE', *, *, #95, .T. ) ;
#106 = APPLICATION_PROTOCOL_DEFINITION ( 'international standard', 'config_control_design', 1994, #149 ) ;
#107 = CIRCLE ( 'NONE', #131, 25.39999999999999900 ) ;
#108 = DIRECTION ( 'NONE',  ( 0.0000000000000000000, 0.0000000000000000000, 1.000000000000000000 ) ) ;
#109 = CC_DESIGN_PERSON_AND_ORGANIZATION_ASSIGNMENT ( #104, #163, ( #64 ) ) ;
#110 = PERSON_AND_ORGANIZATION_ROLE ( 'creator' ) ;
#111 = CARTESIAN_POINT ( 'NONE',  ( 0.0000000000000000000, 0.0000000000000000000, 1.500000000000000000 ) ) ;
#112 = EDGE_LOOP ( 'NONE', ( #36, #127, #168, #118 ) ) ;
#113 = CC_DESIGN_SECURITY_CLASSIFICATION ( #161, ( #153 ) ) ;
#114 = LINE ( 'NONE', #171, #141 ) ;
#115 = CIRCLE ( 'NONE', #76, 25.39999999999999900 ) ;
#116 = CLOSED_SHELL ( 'NONE', ( #140, #4, #121, #152 ) ) ;
#117 = EDGE_CURVE ( 'NONE', #130, #151, #115, .T. ) ;
#118 = ORIENTED_EDGE ( 'NONE', *, *, #99, .F. ) ;
#119 = PRODUCT_RELATED_PRODUCT_CATEGORY ( 'detail', '', ( #64 ) ) ;
#120 = PERSON_AND_ORGANIZATION ( #2, #167 ) ;
#121 = ADVANCED_FACE ( 'NONE', ( #48 ), #54, .T. ) ;
#122 = APPLICATION_CONTEXT ( 'configuration controlled 3d designs of mechanical parts and assemblies' ) ;
#123 = DIRECTION ( 'NONE',  ( 1.000000000000000000, 0.0000000000000000000, 0.0000000000000000000 ) ) ;
#124 = PERSON_AND_ORGANIZATION ( #2, #167 ) ;
#125 = AXIS2_PLACEMENT_3D ( 'NONE', #26, #77, #138 ) ;
#126 = APPROVAL_DATE_TIME ( #155, #38 ) ;
#127 = ORIENTED_EDGE ( 'NONE', *, *, #31, .T. ) ;
#128 = APPROVAL ( #46, 'UNSPECIFIED' ) ;
#129 = COORDINATED_UNIVERSAL_TIME_OFFSET ( 5, 0, .BEHIND. ) ;
#130 = VERTEX_POINT ( 'NONE', #43 ) ;
#131 = AXIS2_PLACEMENT_3D ( 'NONE', #159, #172, #53 ) ;
#132 = CC_DESIGN_APPROVAL ( #7, ( #44 ) ) ;
#133 = CARTESIAN_POINT ( 'NONE',  ( 0.0000000000000000000, 0.0000000000000000000, -1.500000000000000000 ) ) ;
#134 = CARTESIAN_POINT ( 'NONE',  ( 25.39999999999999900, 3.110602869834276900E-015, 1.500000000000000000 ) ) ;
#135 = CARTESIAN_POINT ( 'NONE',  ( -25.39999999999999900, 0.0000000000000000000, -1.500000000000000000 ) ) ;
#136 = COORDINATED_UNIVERSAL_TIME_OFFSET ( 5, 0, .BEHIND. ) ;
#137 = ORIENTED_EDGE ( 'NONE', *, *, #142, .T. ) ;
#138 = DIRECTION ( 'NONE',  ( -1.000000000000000000, 0.0000000000000000000, 0.0000000000000000000 ) ) ;
#139 = CARTESIAN_POINT ( 'NONE',  ( 0.0000000000000000000, 0.0000000000000000000, -1.500000000000000000 ) ) ;
#140 = ADVANCED_FACE ( 'NONE', ( #85 ), #86, .T. ) ;
#141 = VECTOR ( 'NONE', #15, 1000.000000000000000 ) ;
#142 = EDGE_CURVE ( 'NONE', #151, #130, #93, .T. ) ;
#143 = EDGE_CURVE ( 'NONE', #40, #10, #98, .T. ) ;
#144 = CALENDAR_DATE ( 2019, 3, 1 ) ;
#145 = AXIS2_PLACEMENT_3D ( 'NONE', #45, #108, #17 ) ;
#146 = EDGE_LOOP ( 'NONE', ( #42, #9 ) ) ;
#147 = CC_DESIGN_PERSON_AND_ORGANIZATION_ASSIGNMENT ( #173, #57, ( #153 ) ) ;
#148 = MECHANICAL_CONTEXT ( 'NONE', #149, 'mechanical' ) ;
#149 = APPLICATION_CONTEXT ( 'configuration controlled 3d designs of mechanical parts and assemblies' ) ;
#150 = DATE_AND_TIME ( #21, #52 ) ;
#151 = VERTEX_POINT ( 'NONE', #135 ) ;
#152 = ADVANCED_FACE ( 'NONE', ( #87 ), #18, .F. ) ;
#153 = PRODUCT_DEFINITION_FORMATION_WITH_SPECIFIED_SOURCE ( 'ANY', '', #64, .NOT_KNOWN. ) ;
#154 = DATE_AND_TIME ( #144, #66 ) ;
#155 = DATE_AND_TIME ( #157, #63 ) ;
#156 = CC_DESIGN_PERSON_AND_ORGANIZATION_ASSIGNMENT ( #30, #5, ( #161 ) ) ;
#157 = CALENDAR_DATE ( 2019, 3, 1 ) ;
#158 = EDGE_LOOP ( 'NONE', ( #91, #24, #78, #137 ) ) ;
#159 = CARTESIAN_POINT ( 'NONE',  ( 0.0000000000000000000, 0.0000000000000000000, 1.500000000000000000 ) ) ;
#160 = APPROVAL_ROLE ( '' ) ;
#161 = SECURITY_CLASSIFICATION ( '', '', #79 ) ;
#162 = DIRECTION ( 'NONE',  ( 0.0000000000000000000, 0.0000000000000000000, 1.000000000000000000 ) ) ;
#163 = PERSON_AND_ORGANIZATION_ROLE ( 'design_owner' ) ;
#164 = APPROVAL_PERSON_ORGANIZATION ( #25, #38, #34 ) ;
#165 = LINE ( 'NONE', #134, #101 ) ;
#166 = AXIS2_PLACEMENT_3D ( 'NONE', #139, #162, #47 ) ;
#167 = ORGANIZATION ( 'UNSPECIFIED', 'UNSPECIFIED', '' ) ;
#168 = ORIENTED_EDGE ( 'NONE', *, *, #117, .T. ) ;
#169 = PRODUCT_DEFINITION_SHAPE ( 'NONE', 'NONE',  #44 ) ;
#170 = CC_DESIGN_DATE_AND_TIME_ASSIGNMENT ( #100, #3, ( #161 ) ) ;
#171 = CARTESIAN_POINT ( 'NONE',  ( -25.39999999999999900, 0.0000000000000000000, 1.500000000000000000 ) ) ;
#172 = DIRECTION ( 'NONE',  ( 0.0000000000000000000, 0.0000000000000000000, 1.000000000000000000 ) ) ;
#173 = PERSON_AND_ORGANIZATION ( #2, #167 ) ;
#174 = DIRECTION ( 'NONE',  ( 1.000000000000000000, 0.0000000000000000000, -0.0000000000000000000 ) ) ;
#175 = APPROVAL_STATUS ( 'not_yet_approved' ) ;
ENDSEC;
END-ISO-10303-21;
