ISO-10303-21;
HEADER;
FILE_DESCRIPTION (( 'STEP AP203' ),
    '1' );
FILE_NAME ('Web Model 43366_43366.step',
    '2020-10-21T18:20:18',
    ( '' ),
    ( '' ),
    'SwSTEP 2.0',
    'SolidWorks 2018',
    '' );
FILE_SCHEMA (( 'CONFIG_CONTROL_DESIGN' ));
ENDSEC;

DATA;
#1 = ORIENTED_EDGE ( 'NONE', *, *, #132, .T. ) ;
#2 = COORDINATED_UNIVERSAL_TIME_OFFSET ( 5, 0, .BEHIND. ) ;
#3 = ORIENTED_EDGE ( 'NONE', *, *, #53, .F. ) ;
#4 = CARTESIAN_POINT ( 'NONE',  ( -5.000000000000000000, 0.0000000000000000000, 0.0000000000000000000 ) ) ;
#5 = DIRECTION ( 'NONE',  ( -1.000000000000000000, 0.0000000000000000000, 0.0000000000000000000 ) ) ;
#6 = DATE_AND_TIME ( #17, #168 ) ;
#7 = CARTESIAN_POINT ( 'NONE',  ( -5.000000000000000000, 0.0000000000000000000, 1.000000000000000000 ) ) ;
#8 = PRODUCT_RELATED_PRODUCT_CATEGORY ( 'detail', '', ( #35 ) ) ;
#9 = CIRCLE ( 'NONE', #96, 5.000000000000000000 ) ;
#10 = DATE_TIME_ROLE ( 'creation_date' ) ;
#11 =( NAMED_UNIT ( * ) SI_UNIT ( $, .STERADIAN. ) SOLID_ANGLE_UNIT ( ) );
#12 = DATE_AND_TIME ( #67, #44 ) ;
#13 = PERSON_AND_ORGANIZATION ( #19, #129 ) ;
#14 = CC_DESIGN_DATE_AND_TIME_ASSIGNMENT ( #110, #10, ( #107 ) ) ;
#15 = DIRECTION ( 'NONE',  ( 0.0000000000000000000, 0.0000000000000000000, 1.000000000000000000 ) ) ;
#16 = DIRECTION ( 'NONE',  ( 0.0000000000000000000, 0.0000000000000000000, 1.000000000000000000 ) ) ;
#17 = CALENDAR_DATE ( 2020, 21, 10 ) ;
#18 = VERTEX_POINT ( 'NONE', #153 ) ;
#19 = PERSON ( 'UNSPECIFIED', 'UNSPECIFIED', 'UNSPECIFIED', ('UNSPECIFIED'), ('UNSPECIFIED'), ('UNSPECIFIED') ) ;
#20 = LOCAL_TIME ( 14, 20, 18.00000000000000000, #123 ) ;
#21 = EDGE_CURVE ( 'NONE', #60, #146, #113, .T. ) ;
#22 = ADVANCED_FACE ( 'NONE', ( #80 ), #105, .T. ) ;
#23 = VERTEX_POINT ( 'NONE', #7 ) ;
#24 = ADVANCED_FACE ( 'NONE', ( #52 ), #41, .T. ) ;
#25 = DIRECTION ( 'NONE',  ( 1.000000000000000000, 0.0000000000000000000, -0.0000000000000000000 ) ) ;
#26 = ORIENTED_EDGE ( 'NONE', *, *, #53, .T. ) ;
#27 =( LENGTH_UNIT ( ) NAMED_UNIT ( * ) SI_UNIT ( .MILLI., .METRE. ) );
#28 = CARTESIAN_POINT ( 'NONE',  ( 0.0000000000000000000, 0.0000000000000000000, 0.0000000000000000000 ) ) ;
#29 = DATE_AND_TIME ( #106, #142 ) ;
#30 = PERSON_AND_ORGANIZATION_ROLE ( 'creator' ) ;
#31 = AXIS2_PLACEMENT_3D ( 'NONE', #172, #152, #54 ) ;
#32 = PERSON_AND_ORGANIZATION_ROLE ( 'design_supplier' ) ;
#33 = CIRCLE ( 'NONE', #31, 5.000000000000000000 ) ;
#34 = EDGE_LOOP ( 'NONE', ( #1, #26 ) ) ;
#35 = PRODUCT ( 'Web Model 43366_43366', 'Web Model 43366_43366', '', ( #120 ) ) ;
#36 = COORDINATED_UNIVERSAL_TIME_OFFSET ( 5, 0, .BEHIND. ) ;
#37 = LINE ( 'NONE', #97, #91 ) ;
#38 = ADVANCED_FACE ( 'NONE', ( #77 ), #114, .F. ) ;
#39 = APPROVAL_PERSON_ORGANIZATION ( #133, #135, #59 ) ;
#40 = CC_DESIGN_SECURITY_CLASSIFICATION ( #130, ( #149 ) ) ;
#41 = CYLINDRICAL_SURFACE ( 'NONE', #127, 5.000000000000000000 ) ;
#42 = DIRECTION ( 'NONE',  ( 0.0000000000000000000, 0.0000000000000000000, 1.000000000000000000 ) ) ;
#43 = DIRECTION ( 'NONE',  ( -0.0000000000000000000, -0.0000000000000000000, -1.000000000000000000 ) ) ;
#44 = LOCAL_TIME ( 14, 20, 18.00000000000000000, #2 ) ;
#45 = CIRCLE ( 'NONE', #86, 5.000000000000000000 ) ;
#46 = CLOSED_SHELL ( 'NONE', ( #24, #22, #88, #38 ) ) ;
#47 = APPROVAL_STATUS ( 'not_yet_approved' ) ;
#48 = APPLICATION_PROTOCOL_DEFINITION ( 'international standard', 'config_control_design', 1994, #119 ) ;
#49 = ADVANCED_BREP_SHAPE_REPRESENTATION ( 'Web Model 43366_43366', ( #89, #93 ), #116 ) ;
#50 = EDGE_CURVE ( 'NONE', #18, #60, #37, .T. ) ;
#51 = PRODUCT_DEFINITION_SHAPE ( 'NONE', 'NONE',  #107 ) ;
#52 = FACE_OUTER_BOUND ( 'NONE', #139, .T. ) ;
#53 = EDGE_CURVE ( 'NONE', #18, #23, #33, .T. ) ;
#54 = DIRECTION ( 'NONE',  ( 1.000000000000000000, 0.0000000000000000000, 0.0000000000000000000 ) ) ;
#55 = DIRECTION ( 'NONE',  ( 1.000000000000000000, 0.0000000000000000000, 0.0000000000000000000 ) ) ;
#56 = CARTESIAN_POINT ( 'NONE',  ( 0.0000000000000000000, 0.0000000000000000000, 1.000000000000000000 ) ) ;
#57 = PERSON_AND_ORGANIZATION ( #19, #129 ) ;
#58 = APPROVAL_STATUS ( 'not_yet_approved' ) ;
#59 = APPROVAL_ROLE ( '' ) ;
#60 = VERTEX_POINT ( 'NONE', #70 ) ;
#61 = AXIS2_PLACEMENT_3D ( 'NONE', #56, #155, #5 ) ;
#62 = LOCAL_TIME ( 14, 20, 18.00000000000000000, #99 ) ;
#63 = CC_DESIGN_APPROVAL ( #167, ( #130 ) ) ;
#64 = AXIS2_PLACEMENT_3D ( 'NONE', #74, #141, #95 ) ;
#65 = APPROVAL_PERSON_ORGANIZATION ( #13, #165, #143 ) ;
#66 = ORIENTED_EDGE ( 'NONE', *, *, #21, .T. ) ;
#67 = CALENDAR_DATE ( 2020, 21, 10 ) ;
#68 = DIRECTION ( 'NONE',  ( 1.000000000000000000, 0.0000000000000000000, -0.0000000000000000000 ) ) ;
#69 = EDGE_LOOP ( 'NONE', ( #170, #103 ) ) ;
#70 = CARTESIAN_POINT ( 'NONE',  ( 5.000000000000000000, 6.123233995736766282E-16, 0.0000000000000000000 ) ) ;
#71 = CARTESIAN_POINT ( 'NONE',  ( 0.0000000000000000000, 0.0000000000000000000, 1.000000000000000000 ) ) ;
#72 = CC_DESIGN_PERSON_AND_ORGANIZATION_ASSIGNMENT ( #122, #159, ( #35 ) ) ;
#73 = CARTESIAN_POINT ( 'NONE',  ( -5.000000000000000000, 0.0000000000000000000, 1.000000000000000000 ) ) ;
#74 = CARTESIAN_POINT ( 'NONE',  ( 0.0000000000000000000, 0.0000000000000000000, 0.0000000000000000000 ) ) ;
#75 = APPROVAL_STATUS ( 'not_yet_approved' ) ;
#76 = PERSON_AND_ORGANIZATION ( #19, #129 ) ;
#77 = FACE_OUTER_BOUND ( 'NONE', #69, .T. ) ;
#78 = CC_DESIGN_PERSON_AND_ORGANIZATION_ASSIGNMENT ( #162, #131, ( #107 ) ) ;
#79 = CALENDAR_DATE ( 2020, 21, 10 ) ;
#80 = FACE_OUTER_BOUND ( 'NONE', #100, .T. ) ;
#81 = PLANE ( 'NONE',  #90 ) ;
#82 = DIRECTION ( 'NONE',  ( 1.000000000000000000, 0.0000000000000000000, 0.0000000000000000000 ) ) ;
#83 = DIRECTION ( 'NONE',  ( -0.0000000000000000000, -0.0000000000000000000, -1.000000000000000000 ) ) ;
#84 = APPROVAL_DATE_TIME ( #126, #167 ) ;
#85 = DIRECTION ( 'NONE',  ( 0.0000000000000000000, 0.0000000000000000000, 1.000000000000000000 ) ) ;
#86 = AXIS2_PLACEMENT_3D ( 'NONE', #28, #42, #55 ) ;
#87 = DESIGN_CONTEXT ( 'detailed design', #119, 'design' ) ;
#88 = ADVANCED_FACE ( 'NONE', ( #166 ), #81, .T. ) ;
#89 = MANIFOLD_SOLID_BREP ( 'Boss-Extrude1', #46 ) ;
#90 = AXIS2_PLACEMENT_3D ( 'NONE', #140, #15, #68 ) ;
#91 = VECTOR ( 'NONE', #169, 1000.000000000000000 ) ;
#92 = PERSON_AND_ORGANIZATION ( #19, #129 ) ;
#93 = AXIS2_PLACEMENT_3D ( 'NONE', #128, #85, #174 ) ;
#94 = ORIENTED_EDGE ( 'NONE', *, *, #50, .F. ) ;
#95 = DIRECTION ( 'NONE',  ( 1.000000000000000000, 0.0000000000000000000, 0.0000000000000000000 ) ) ;
#96 = AXIS2_PLACEMENT_3D ( 'NONE', #71, #171, #82 ) ;
#97 = CARTESIAN_POINT ( 'NONE',  ( 5.000000000000000000, 6.123233995736766282E-16, 1.000000000000000000 ) ) ;
#98 = CARTESIAN_POINT ( 'NONE',  ( 0.0000000000000000000, 0.0000000000000000000, 1.000000000000000000 ) ) ;
#99 = COORDINATED_UNIVERSAL_TIME_OFFSET ( 5, 0, .BEHIND. ) ;
#100 = EDGE_LOOP ( 'NONE', ( #94, #134, #108, #144 ) ) ;
#101 = DATE_TIME_ROLE ( 'classification_date' ) ;
#102 = APPROVAL_ROLE ( '' ) ;
#103 = ORIENTED_EDGE ( 'NONE', *, *, #21, .F. ) ;
#104 = APPLICATION_CONTEXT ( 'configuration controlled 3d designs of mechanical parts and assemblies' ) ;
#105 = CYLINDRICAL_SURFACE ( 'NONE', #61, 5.000000000000000000 ) ;
#106 = CALENDAR_DATE ( 2020, 21, 10 ) ;
#107 = PRODUCT_DEFINITION ( 'UNKNOWN', '', #149, #87 ) ;
#108 = ORIENTED_EDGE ( 'NONE', *, *, #121, .T. ) ;
#109 = CC_DESIGN_APPROVAL ( #165, ( #107 ) ) ;
#110 = DATE_AND_TIME ( #79, #20 ) ;
#111 = CC_DESIGN_APPROVAL ( #135, ( #149 ) ) ;
#112 = LINE ( 'NONE', #73, #138 ) ;
#113 = CIRCLE ( 'NONE', #64, 5.000000000000000000 ) ;
#114 = PLANE ( 'NONE',  #151 ) ;
#115 = UNCERTAINTY_MEASURE_WITH_UNIT (LENGTH_MEASURE( 1.000000000000000082E-05 ), #27, 'distance_accuracy_value', 'NONE');
#116 =( GEOMETRIC_REPRESENTATION_CONTEXT ( 3 ) GLOBAL_UNCERTAINTY_ASSIGNED_CONTEXT ( ( #115 ) ) GLOBAL_UNIT_ASSIGNED_CONTEXT ( ( #27, #117, #11 ) ) REPRESENTATION_CONTEXT ( 'NONE', 'WORKASPACE' ) );
#117 =( NAMED_UNIT ( * ) PLANE_ANGLE_UNIT ( ) SI_UNIT ( $, .RADIAN. ) );
#118 = PERSON_AND_ORGANIZATION ( #19, #129 ) ;
#119 = APPLICATION_CONTEXT ( 'configuration controlled 3d designs of mechanical parts and assemblies' ) ;
#120 = MECHANICAL_CONTEXT ( 'NONE', #104, 'mechanical' ) ;
#121 = EDGE_CURVE ( 'NONE', #23, #146, #112, .T. ) ;
#122 = PERSON_AND_ORGANIZATION ( #19, #129 ) ;
#123 = COORDINATED_UNIVERSAL_TIME_OFFSET ( 5, 0, .BEHIND. ) ;
#124 = EDGE_CURVE ( 'NONE', #146, #60, #45, .T. ) ;
#125 = CC_DESIGN_PERSON_AND_ORGANIZATION_ASSIGNMENT ( #76, #30, ( #149 ) ) ;
#126 = DATE_AND_TIME ( #158, #62 ) ;
#127 = AXIS2_PLACEMENT_3D ( 'NONE', #98, #83, #137 ) ;
#128 = CARTESIAN_POINT ( 'NONE',  ( 0.0000000000000000000, 0.0000000000000000000, 0.0000000000000000000 ) ) ;
#129 = ORGANIZATION ( 'UNSPECIFIED', 'UNSPECIFIED', '' ) ;
#130 = SECURITY_CLASSIFICATION ( '', '', #161 ) ;
#131 = PERSON_AND_ORGANIZATION_ROLE ( 'creator' ) ;
#132 = EDGE_CURVE ( 'NONE', #23, #18, #9, .T. ) ;
#133 = PERSON_AND_ORGANIZATION ( #19, #129 ) ;
#134 = ORIENTED_EDGE ( 'NONE', *, *, #132, .F. ) ;
#135 = APPROVAL ( #47, 'UNSPECIFIED' ) ;
#136 = ORIENTED_EDGE ( 'NONE', *, *, #50, .T. ) ;
#137 = DIRECTION ( 'NONE',  ( -1.000000000000000000, 0.0000000000000000000, 0.0000000000000000000 ) ) ;
#138 = VECTOR ( 'NONE', #43, 1000.000000000000000 ) ;
#139 = EDGE_LOOP ( 'NONE', ( #3, #136, #66, #173 ) ) ;
#140 = CARTESIAN_POINT ( 'NONE',  ( 0.0000000000000000000, 0.0000000000000000000, 1.000000000000000000 ) ) ;
#141 = DIRECTION ( 'NONE',  ( 0.0000000000000000000, 0.0000000000000000000, 1.000000000000000000 ) ) ;
#142 = LOCAL_TIME ( 14, 20, 18.00000000000000000, #36 ) ;
#143 = APPROVAL_ROLE ( '' ) ;
#144 = ORIENTED_EDGE ( 'NONE', *, *, #124, .T. ) ;
#145 = PERSON_AND_ORGANIZATION_ROLE ( 'classification_officer' ) ;
#146 = VERTEX_POINT ( 'NONE', #4 ) ;
#147 = CC_DESIGN_PERSON_AND_ORGANIZATION_ASSIGNMENT ( #92, #32, ( #149 ) ) ;
#148 = COORDINATED_UNIVERSAL_TIME_OFFSET ( 5, 0, .BEHIND. ) ;
#149 = PRODUCT_DEFINITION_FORMATION_WITH_SPECIFIED_SOURCE ( 'ANY', '', #35, .NOT_KNOWN. ) ;
#150 = APPROVAL_DATE_TIME ( #12, #135 ) ;
#151 = AXIS2_PLACEMENT_3D ( 'NONE', #156, #16, #25 ) ;
#152 = DIRECTION ( 'NONE',  ( 0.0000000000000000000, 0.0000000000000000000, 1.000000000000000000 ) ) ;
#153 = CARTESIAN_POINT ( 'NONE',  ( 5.000000000000000000, 6.123233995736766282E-16, 1.000000000000000000 ) ) ;
#154 = APPROVAL_DATE_TIME ( #6, #165 ) ;
#155 = DIRECTION ( 'NONE',  ( -0.0000000000000000000, -0.0000000000000000000, -1.000000000000000000 ) ) ;
#156 = CARTESIAN_POINT ( 'NONE',  ( 0.0000000000000000000, 0.0000000000000000000, 0.0000000000000000000 ) ) ;
#157 = APPLICATION_PROTOCOL_DEFINITION ( 'international standard', 'config_control_design', 1994, #104 ) ;
#158 = CALENDAR_DATE ( 2020, 21, 10 ) ;
#159 = PERSON_AND_ORGANIZATION_ROLE ( 'design_owner' ) ;
#160 = CC_DESIGN_PERSON_AND_ORGANIZATION_ASSIGNMENT ( #118, #145, ( #130 ) ) ;
#161 = SECURITY_CLASSIFICATION_LEVEL ( 'unclassified' ) ;
#162 = PERSON_AND_ORGANIZATION ( #19, #129 ) ;
#163 = CC_DESIGN_DATE_AND_TIME_ASSIGNMENT ( #29, #101, ( #130 ) ) ;
#164 = SHAPE_DEFINITION_REPRESENTATION ( #51, #49 ) ;
#165 = APPROVAL ( #75, 'UNSPECIFIED' ) ;
#166 = FACE_OUTER_BOUND ( 'NONE', #34, .T. ) ;
#167 = APPROVAL ( #58, 'UNSPECIFIED' ) ;
#168 = LOCAL_TIME ( 14, 20, 18.00000000000000000, #148 ) ;
#169 = DIRECTION ( 'NONE',  ( -0.0000000000000000000, -0.0000000000000000000, -1.000000000000000000 ) ) ;
#170 = ORIENTED_EDGE ( 'NONE', *, *, #124, .F. ) ;
#171 = DIRECTION ( 'NONE',  ( 0.0000000000000000000, 0.0000000000000000000, 1.000000000000000000 ) ) ;
#172 = CARTESIAN_POINT ( 'NONE',  ( 0.0000000000000000000, 0.0000000000000000000, 1.000000000000000000 ) ) ;
#173 = ORIENTED_EDGE ( 'NONE', *, *, #121, .F. ) ;
#174 = DIRECTION ( 'NONE',  ( 1.000000000000000000, 0.0000000000000000000, 0.0000000000000000000 ) ) ;
#175 = APPROVAL_PERSON_ORGANIZATION ( #57, #167, #102 ) ;
ENDSEC;
END-ISO-10303-21;
