ISO-10303-21;
HEADER;
FILE_DESCRIPTION (( 'STEP AP203' ),
    '1' );
FILE_NAME ('Web Model 63208_14831.step',
    '2020-10-07T17:37:37',
    ( '' ),
    ( '' ),
    'SwSTEP 2.0',
    'SolidWorks 2018',
    '' );
FILE_SCHEMA (( 'CONFIG_CONTROL_DESIGN' ));
ENDSEC;

DATA;
#1 = CALENDAR_DATE ( 2020, 7, 10 ) ;
#2 = CC_DESIGN_DATE_AND_TIME_ASSIGNMENT ( #139, #65, ( #166 ) ) ;
#3 = FACE_OUTER_BOUND ( 'NONE', #117, .T. ) ;
#4 = DIRECTION ( 'NONE',  ( 0.0000000000000000000, 0.0000000000000000000, 1.000000000000000000 ) ) ;
#5 = DIRECTION ( 'NONE',  ( -0.0000000000000000000, -0.0000000000000000000, -1.000000000000000000 ) ) ;
#6 = COORDINATED_UNIVERSAL_TIME_OFFSET ( 5, 0, .BEHIND. ) ;
#7 = ADVANCED_FACE ( 'NONE', ( #3 ), #48, .T. ) ;
#8 = PERSON_AND_ORGANIZATION ( #129, #126 ) ;
#9 = DIRECTION ( 'NONE',  ( 1.000000000000000000, 0.0000000000000000000, 0.0000000000000000000 ) ) ;
#10 = PERSON_AND_ORGANIZATION_ROLE ( 'creator' ) ;
#11 = APPROVAL_DATE_TIME ( #47, #37 ) ;
#12 = CC_DESIGN_PERSON_AND_ORGANIZATION_ASSIGNMENT ( #161, #123, ( #86 ) ) ;
#13 = PERSON_AND_ORGANIZATION ( #129, #126 ) ;
#14 = CC_DESIGN_APPROVAL ( #18, ( #166 ) ) ;
#15 = DIRECTION ( 'NONE',  ( -1.000000000000000000, 0.0000000000000000000, 0.0000000000000000000 ) ) ;
#16 = ORIENTED_EDGE ( 'NONE', *, *, #76, .T. ) ;
#17 = EDGE_LOOP ( 'NONE', ( #134, #88, #29, #132 ) ) ;
#18 = APPROVAL ( #39, 'UNSPECIFIED' ) ;
#19 = LOCAL_TIME ( 13, 37, 37.00000000000000000, #107 ) ;
#20 = CC_DESIGN_PERSON_AND_ORGANIZATION_ASSIGNMENT ( #81, #36, ( #34 ) ) ;
#21 = APPLICATION_CONTEXT ( 'configuration controlled 3d designs of mechanical parts and assemblies' ) ;
#22 = PERSON_AND_ORGANIZATION_ROLE ( 'creator' ) ;
#23 = APPROVAL_PERSON_ORGANIZATION ( #8, #55, #173 ) ;
#24 = CALENDAR_DATE ( 2020, 7, 10 ) ;
#25 = CALENDAR_DATE ( 2020, 7, 10 ) ;
#26 = AXIS2_PLACEMENT_3D ( 'NONE', #122, #171, #148 ) ;
#27 = CC_DESIGN_PERSON_AND_ORGANIZATION_ASSIGNMENT ( #13, #10, ( #166 ) ) ;
#28 = CC_DESIGN_APPROVAL ( #37, ( #86 ) ) ;
#29 = ORIENTED_EDGE ( 'NONE', *, *, #59, .T. ) ;
#30 = CARTESIAN_POINT ( 'NONE',  ( -15.00000000000000000, 0.0000000000000000000, 3.000000000000000000 ) ) ;
#31 = COORDINATED_UNIVERSAL_TIME_OFFSET ( 5, 0, .BEHIND. ) ;
#32 = DIRECTION ( 'NONE',  ( 0.0000000000000000000, 0.0000000000000000000, 1.000000000000000000 ) ) ;
#33 = VERTEX_POINT ( 'NONE', #58 ) ;
#34 = SECURITY_CLASSIFICATION ( '', '', #51 ) ;
#35 = MECHANICAL_CONTEXT ( 'NONE', #21, 'mechanical' ) ;
#36 = PERSON_AND_ORGANIZATION_ROLE ( 'classification_officer' ) ;
#37 = APPROVAL ( #109, 'UNSPECIFIED' ) ;
#38 = CARTESIAN_POINT ( 'NONE',  ( 0.0000000000000000000, 0.0000000000000000000, 0.0000000000000000000 ) ) ;
#39 = APPROVAL_STATUS ( 'not_yet_approved' ) ;
#40 = EDGE_CURVE ( 'NONE', #72, #75, #97, .T. ) ;
#41 = EDGE_CURVE ( 'NONE', #98, #33, #167, .T. ) ;
#42 = LINE ( 'NONE', #56, #63 ) ;
#43 = ORIENTED_EDGE ( 'NONE', *, *, #41, .T. ) ;
#44 = DIRECTION ( 'NONE',  ( -0.0000000000000000000, -0.0000000000000000000, -1.000000000000000000 ) ) ;
#45 = CARTESIAN_POINT ( 'NONE',  ( 0.0000000000000000000, 0.0000000000000000000, 3.000000000000000000 ) ) ;
#46 = DIRECTION ( 'NONE',  ( 1.000000000000000000, 0.0000000000000000000, 0.0000000000000000000 ) ) ;
#47 = DATE_AND_TIME ( #24, #85 ) ;
#48 = CYLINDRICAL_SURFACE ( 'NONE', #131, 15.00000000000000000 ) ;
#49 =( NAMED_UNIT ( * ) SI_UNIT ( $, .STERADIAN. ) SOLID_ANGLE_UNIT ( ) );
#50 = APPROVAL_PERSON_ORGANIZATION ( #158, #18, #172 ) ;
#51 = SECURITY_CLASSIFICATION_LEVEL ( 'unclassified' ) ;
#52 = ORIENTED_EDGE ( 'NONE', *, *, #59, .F. ) ;
#53 = CC_DESIGN_PERSON_AND_ORGANIZATION_ASSIGNMENT ( #102, #22, ( #86 ) ) ;
#54 = VECTOR ( 'NONE', #5, 1000.000000000000000 ) ;
#55 = APPROVAL ( #79, 'UNSPECIFIED' ) ;
#56 = CARTESIAN_POINT ( 'NONE',  ( -15.00000000000000000, 0.0000000000000000000, 3.000000000000000000 ) ) ;
#57 = CIRCLE ( 'NONE', #100, 15.00000000000000000 ) ;
#58 = CARTESIAN_POINT ( 'NONE',  ( 15.00000000000000000, 1.836970198721029589E-15, 0.0000000000000000000 ) ) ;
#59 = EDGE_CURVE ( 'NONE', #33, #98, #57, .T. ) ;
#60 = DIRECTION ( 'NONE',  ( 0.0000000000000000000, 0.0000000000000000000, 1.000000000000000000 ) ) ;
#61 = COORDINATED_UNIVERSAL_TIME_OFFSET ( 5, 0, .BEHIND. ) ;
#62 = CARTESIAN_POINT ( 'NONE',  ( -15.00000000000000000, 0.0000000000000000000, 0.0000000000000000000 ) ) ;
#63 = VECTOR ( 'NONE', #162, 1000.000000000000000 ) ;
#64 = CARTESIAN_POINT ( 'NONE',  ( 0.0000000000000000000, 0.0000000000000000000, 0.0000000000000000000 ) ) ;
#65 = DATE_TIME_ROLE ( 'creation_date' ) ;
#66 = APPROVAL_ROLE ( '' ) ;
#67 = APPROVAL_DATE_TIME ( #84, #18 ) ;
#68 = ORIENTED_EDGE ( 'NONE', *, *, #127, .T. ) ;
#69 = CC_DESIGN_APPROVAL ( #55, ( #34 ) ) ;
#70 = CALENDAR_DATE ( 2020, 7, 10 ) ;
#71 = AXIS2_PLACEMENT_3D ( 'NONE', #45, #60, #151 ) ;
#72 = VERTEX_POINT ( 'NONE', #87 ) ;
#73 = PRODUCT ( 'Web Model 63208_14831', 'Web Model 63208_14831', '', ( #35 ) ) ;
#74 = ADVANCED_BREP_SHAPE_REPRESENTATION ( 'Web Model 63208_14831', ( #99, #156 ), #115 ) ;
#75 = VERTEX_POINT ( 'NONE', #30 ) ;
#76 = EDGE_CURVE ( 'NONE', #75, #98, #42, .T. ) ;
#77 = DIRECTION ( 'NONE',  ( 0.0000000000000000000, 0.0000000000000000000, 1.000000000000000000 ) ) ;
#78 =( LENGTH_UNIT ( ) NAMED_UNIT ( * ) SI_UNIT ( .MILLI., .METRE. ) );
#79 = APPROVAL_STATUS ( 'not_yet_approved' ) ;
#80 = PLANE ( 'NONE',  #145 ) ;
#81 = PERSON_AND_ORGANIZATION ( #129, #126 ) ;
#82 = EDGE_LOOP ( 'NONE', ( #174, #52 ) ) ;
#83 = PRODUCT_DEFINITION_SHAPE ( 'NONE', 'NONE',  #166 ) ;
#84 = DATE_AND_TIME ( #70, #19 ) ;
#85 = LOCAL_TIME ( 13, 37, 37.00000000000000000, #128 ) ;
#86 = PRODUCT_DEFINITION_FORMATION_WITH_SPECIFIED_SOURCE ( 'ANY', '', #73, .NOT_KNOWN. ) ;
#87 = CARTESIAN_POINT ( 'NONE',  ( 15.00000000000000000, 1.836970198721029589E-15, 3.000000000000000000 ) ) ;
#88 = ORIENTED_EDGE ( 'NONE', *, *, #118, .T. ) ;
#89 = CYLINDRICAL_SURFACE ( 'NONE', #26, 15.00000000000000000 ) ;
#90 = AXIS2_PLACEMENT_3D ( 'NONE', #164, #32, #46 ) ;
#91 = CARTESIAN_POINT ( 'NONE',  ( 0.0000000000000000000, 0.0000000000000000000, 0.0000000000000000000 ) ) ;
#92 = DIRECTION ( 'NONE',  ( 0.0000000000000000000, 0.0000000000000000000, 1.000000000000000000 ) ) ;
#93 = CLOSED_SHELL ( 'NONE', ( #153, #7, #120, #143 ) ) ;
#94 = PERSON_AND_ORGANIZATION ( #129, #126 ) ;
#95 =( NAMED_UNIT ( * ) PLANE_ANGLE_UNIT ( ) SI_UNIT ( $, .RADIAN. ) );
#96 = DIRECTION ( 'NONE',  ( 1.000000000000000000, 0.0000000000000000000, 0.0000000000000000000 ) ) ;
#97 = CIRCLE ( 'NONE', #71, 15.00000000000000000 ) ;
#98 = VERTEX_POINT ( 'NONE', #62 ) ;
#99 = MANIFOLD_SOLID_BREP ( 'Extrude1', #93 ) ;
#100 = AXIS2_PLACEMENT_3D ( 'NONE', #91, #4, #103 ) ;
#101 = FACE_OUTER_BOUND ( 'NONE', #82, .T. ) ;
#102 = PERSON_AND_ORGANIZATION ( #129, #126 ) ;
#103 = DIRECTION ( 'NONE',  ( 1.000000000000000000, 0.0000000000000000000, 0.0000000000000000000 ) ) ;
#104 = PLANE ( 'NONE',  #149 ) ;
#105 = EDGE_LOOP ( 'NONE', ( #68, #141 ) ) ;
#106 = CC_DESIGN_PERSON_AND_ORGANIZATION_ASSIGNMENT ( #94, #154, ( #73 ) ) ;
#107 = COORDINATED_UNIVERSAL_TIME_OFFSET ( 5, 0, .BEHIND. ) ;
#108 = AXIS2_PLACEMENT_3D ( 'NONE', #110, #77, #9 ) ;
#109 = APPROVAL_STATUS ( 'not_yet_approved' ) ;
#110 = CARTESIAN_POINT ( 'NONE',  ( 0.0000000000000000000, 0.0000000000000000000, 3.000000000000000000 ) ) ;
#111 = LOCAL_TIME ( 13, 37, 37.00000000000000000, #31 ) ;
#112 = LOCAL_TIME ( 13, 37, 37.00000000000000000, #6 ) ;
#113 = CC_DESIGN_DATE_AND_TIME_ASSIGNMENT ( #163, #157, ( #34 ) ) ;
#114 = CARTESIAN_POINT ( 'NONE',  ( 0.0000000000000000000, 0.0000000000000000000, 3.000000000000000000 ) ) ;
#115 =( GEOMETRIC_REPRESENTATION_CONTEXT ( 3 ) GLOBAL_UNCERTAINTY_ASSIGNED_CONTEXT ( ( #138 ) ) GLOBAL_UNIT_ASSIGNED_CONTEXT ( ( #78, #95, #49 ) ) REPRESENTATION_CONTEXT ( 'NONE', 'WORKASPACE' ) );
#116 = APPROVAL_PERSON_ORGANIZATION ( #152, #37, #66 ) ;
#117 = EDGE_LOOP ( 'NONE', ( #150, #159, #16, #43 ) ) ;
#118 = EDGE_CURVE ( 'NONE', #72, #33, #175, .T. ) ;
#119 = DIRECTION ( 'NONE',  ( 0.0000000000000000000, 0.0000000000000000000, 1.000000000000000000 ) ) ;
#120 = ADVANCED_FACE ( 'NONE', ( #121 ), #104, .T. ) ;
#121 = FACE_OUTER_BOUND ( 'NONE', #105, .T. ) ;
#122 = CARTESIAN_POINT ( 'NONE',  ( 0.0000000000000000000, 0.0000000000000000000, 3.000000000000000000 ) ) ;
#123 = PERSON_AND_ORGANIZATION_ROLE ( 'design_supplier' ) ;
#124 = CIRCLE ( 'NONE', #108, 15.00000000000000000 ) ;
#125 = CC_DESIGN_SECURITY_CLASSIFICATION ( #34, ( #86 ) ) ;
#126 = ORGANIZATION ( 'UNSPECIFIED', 'UNSPECIFIED', '' ) ;
#127 = EDGE_CURVE ( 'NONE', #75, #72, #124, .T. ) ;
#128 = COORDINATED_UNIVERSAL_TIME_OFFSET ( 5, 0, .BEHIND. ) ;
#129 = PERSON ( 'UNSPECIFIED', 'UNSPECIFIED', 'UNSPECIFIED', ('UNSPECIFIED'), ('UNSPECIFIED'), ('UNSPECIFIED') ) ;
#130 = LOCAL_TIME ( 13, 37, 37.00000000000000000, #61 ) ;
#131 = AXIS2_PLACEMENT_3D ( 'NONE', #114, #44, #15 ) ;
#132 = ORIENTED_EDGE ( 'NONE', *, *, #76, .F. ) ;
#133 = FACE_OUTER_BOUND ( 'NONE', #17, .T. ) ;
#134 = ORIENTED_EDGE ( 'NONE', *, *, #40, .F. ) ;
#135 = APPLICATION_PROTOCOL_DEFINITION ( 'international standard', 'config_control_design', 1994, #21 ) ;
#136 = APPLICATION_CONTEXT ( 'configuration controlled 3d designs of mechanical parts and assemblies' ) ;
#137 = DESIGN_CONTEXT ( 'detailed design', #136, 'design' ) ;
#138 = UNCERTAINTY_MEASURE_WITH_UNIT (LENGTH_MEASURE( 1.000000000000000082E-05 ), #78, 'distance_accuracy_value', 'NONE');
#139 = DATE_AND_TIME ( #169, #130 ) ;
#140 = PRODUCT_RELATED_PRODUCT_CATEGORY ( 'detail', '', ( #73 ) ) ;
#141 = ORIENTED_EDGE ( 'NONE', *, *, #40, .T. ) ;
#142 = SHAPE_DEFINITION_REPRESENTATION ( #83, #74 ) ;
#143 = ADVANCED_FACE ( 'NONE', ( #101 ), #80, .F. ) ;
#144 = CARTESIAN_POINT ( 'NONE',  ( 15.00000000000000000, 1.836970198721029589E-15, 3.000000000000000000 ) ) ;
#145 = AXIS2_PLACEMENT_3D ( 'NONE', #38, #119, #147 ) ;
#146 = APPLICATION_PROTOCOL_DEFINITION ( 'international standard', 'config_control_design', 1994, #136 ) ;
#147 = DIRECTION ( 'NONE',  ( 1.000000000000000000, 0.0000000000000000000, -0.0000000000000000000 ) ) ;
#148 = DIRECTION ( 'NONE',  ( -1.000000000000000000, 0.0000000000000000000, 0.0000000000000000000 ) ) ;
#149 = AXIS2_PLACEMENT_3D ( 'NONE', #168, #92, #170 ) ;
#150 = ORIENTED_EDGE ( 'NONE', *, *, #118, .F. ) ;
#151 = DIRECTION ( 'NONE',  ( 1.000000000000000000, 0.0000000000000000000, 0.0000000000000000000 ) ) ;
#152 = PERSON_AND_ORGANIZATION ( #129, #126 ) ;
#153 = ADVANCED_FACE ( 'NONE', ( #133 ), #89, .T. ) ;
#154 = PERSON_AND_ORGANIZATION_ROLE ( 'design_owner' ) ;
#155 = DIRECTION ( 'NONE',  ( 0.0000000000000000000, 0.0000000000000000000, 1.000000000000000000 ) ) ;
#156 = AXIS2_PLACEMENT_3D ( 'NONE', #64, #155, #96 ) ;
#157 = DATE_TIME_ROLE ( 'classification_date' ) ;
#158 = PERSON_AND_ORGANIZATION ( #129, #126 ) ;
#159 = ORIENTED_EDGE ( 'NONE', *, *, #127, .F. ) ;
#160 = APPROVAL_DATE_TIME ( #165, #55 ) ;
#161 = PERSON_AND_ORGANIZATION ( #129, #126 ) ;
#162 = DIRECTION ( 'NONE',  ( -0.0000000000000000000, -0.0000000000000000000, -1.000000000000000000 ) ) ;
#163 = DATE_AND_TIME ( #25, #112 ) ;
#164 = CARTESIAN_POINT ( 'NONE',  ( 0.0000000000000000000, 0.0000000000000000000, 0.0000000000000000000 ) ) ;
#165 = DATE_AND_TIME ( #1, #111 ) ;
#166 = PRODUCT_DEFINITION ( 'UNKNOWN', '', #86, #137 ) ;
#167 = CIRCLE ( 'NONE', #90, 15.00000000000000000 ) ;
#168 = CARTESIAN_POINT ( 'NONE',  ( 0.0000000000000000000, 0.0000000000000000000, 3.000000000000000000 ) ) ;
#169 = CALENDAR_DATE ( 2020, 7, 10 ) ;
#170 = DIRECTION ( 'NONE',  ( 1.000000000000000000, 0.0000000000000000000, -0.0000000000000000000 ) ) ;
#171 = DIRECTION ( 'NONE',  ( -0.0000000000000000000, -0.0000000000000000000, -1.000000000000000000 ) ) ;
#172 = APPROVAL_ROLE ( '' ) ;
#173 = APPROVAL_ROLE ( '' ) ;
#174 = ORIENTED_EDGE ( 'NONE', *, *, #41, .F. ) ;
#175 = LINE ( 'NONE', #144, #54 ) ;
ENDSEC;
END-ISO-10303-21;
