ISO-10303-21;
HEADER;
FILE_DESCRIPTION (( 'STEP AP203' ),
    '1' );
FILE_NAME ('TTN047620-E0W.STEP',
    '2019-05-30T15:05:44',
    ( '' ),
    ( '' ),
    'SwSTEP 2.0',
    'SolidWorks 2018',
    '' );
FILE_SCHEMA (( 'CONFIG_CONTROL_DESIGN' ));
ENDSEC;

DATA;
#1 = DIRECTION ( 'NONE',  ( 0.0000000000000000000, 1.666487321856962191E-13, 1.000000000000000000 ) ) ;
#2 = AXIS2_PLACEMENT_3D ( 'NONE', #296, #13, #190 ) ;
#3 = DATE_AND_TIME ( #127, #234 ) ;
#4 = PRODUCT_DEFINITION ( 'UNKNOWN', '', #78, #123 ) ;
#5 = AXIS2_PLACEMENT_3D ( 'NONE', #228, #203, #150 ) ;
#6 = ADVANCED_FACE ( 'NONE', ( #205 ), #154, .T. ) ;
#7 = DIRECTION ( 'NONE',  ( 0.0000000000000000000, 1.000000000000000000, 3.166045774748745548E-16 ) ) ;
#8 = DIRECTION ( 'NONE',  ( -1.224646799147353207E-16, 1.000000000000000000, 0.0000000000000000000 ) ) ;
#9 = PLANE ( 'NONE',  #189 ) ;
#10 = VERTEX_POINT ( 'NONE', #217 ) ;
#11 = FACE_OUTER_BOUND ( 'NONE', #213, .T. ) ;
#12 = DIRECTION ( 'NONE',  ( -0.0000000000000000000, -1.666487321856962191E-13, -1.000000000000000000 ) ) ;
#13 = DIRECTION ( 'NONE',  ( 0.0000000000000000000, 0.0000000000000000000, 1.000000000000000000 ) ) ;
#14 = CC_DESIGN_PERSON_AND_ORGANIZATION_ASSIGNMENT ( #255, #162, ( #4 ) ) ;
#15 = ORIENTED_EDGE ( 'NONE', *, *, #82, .F. ) ;
#16 = DIRECTION ( 'NONE',  ( 0.0000000000000000000, 0.7071067811865504593, -0.7071067811865445751 ) ) ;
#17 = EDGE_CURVE ( 'NONE', #223, #61, #278, .T. ) ;
#18 = FACE_OUTER_BOUND ( 'NONE', #132, .T. ) ;
#19 = CONICAL_SURFACE ( 'NONE', #289, 12.49999999999966604, 0.7853981633976190313 ) ;
#20 = AXIS2_PLACEMENT_3D ( 'NONE', #269, #84, #180 ) ;
#21 = ORIENTED_EDGE ( 'NONE', *, *, #257, .T. ) ;
#22 = COORDINATED_UNIVERSAL_TIME_OFFSET ( 5, 0, .BEHIND. ) ;
#23 = CIRCLE ( 'NONE', #101, 12.50000000000000000 ) ;
#24 = ORIENTED_EDGE ( 'NONE', *, *, #192, .T. ) ;
#25 = CC_DESIGN_DATE_AND_TIME_ASSIGNMENT ( #3, #164, ( #4 ) ) ;
#26 = ORIENTED_EDGE ( 'NONE', *, *, #115, .F. ) ;
#27 = CARTESIAN_POINT ( 'NONE',  ( 0.0000000000000000000, 3.796279696849369796E-16, -1.030000000000000027 ) ) ;
#28 = ORIENTED_EDGE ( 'NONE', *, *, #17, .F. ) ;
#29 = LINE ( 'NONE', #247, #241 ) ;
#30 = CALENDAR_DATE ( 2019, 30, 5 ) ;
#31 = APPROVAL ( #194, 'UNSPECIFIED' ) ;
#32 = CARTESIAN_POINT ( 'NONE',  ( 0.0000000000000000000, -12.50000000000000000, -1.029999999995841575 ) ) ;
#33 = DIRECTION ( 'NONE',  ( 0.0000000000000000000, 1.000000000000000000, 3.073328992872295874E-16 ) ) ;
#34 = LINE ( 'NONE', #71, #188 ) ;
#35 = DIRECTION ( 'NONE',  ( 0.0000000000000000000, -1.000000000000000000, 1.666512646385006607E-13 ) ) ;
#36 = CIRCLE ( 'NONE', #260, 12.69999999999996909 ) ;
#37 = DIRECTION ( 'NONE',  ( -0.0000000000000000000, 3.061515884555943146E-16, -1.000000000000000000 ) ) ;
#38 = CARTESIAN_POINT ( 'NONE',  ( 1.555301434917101948E-15, -12.69999999999940066, 0.7743012278291688810 ) ) ;
#39 = ORIENTED_EDGE ( 'NONE', *, *, #176, .F. ) ;
#40 = CALENDAR_DATE ( 2019, 30, 5 ) ;
#41 = DIRECTION ( 'NONE',  ( -1.000000000000000000, 0.0000000000000000000, 0.0000000000000000000 ) ) ;
#42 = APPROVAL_DATE_TIME ( #121, #31 ) ;
#43 = CC_DESIGN_APPROVAL ( #95, ( #78 ) ) ;
#44 = ORIENTED_EDGE ( 'NONE', *, *, #240, .T. ) ;
#45 = CIRCLE ( 'NONE', #226, 12.49999999999966604 ) ;
#46 = ORIENTED_EDGE ( 'NONE', *, *, #221, .T. ) ;
#47 = DIRECTION ( 'NONE',  ( 0.0000000000000000000, -1.000000000000000000, 1.666512646385006607E-13 ) ) ;
#48 = APPROVAL_PERSON_ORGANIZATION ( #133, #216, #283 ) ;
#49 = AXIS2_PLACEMENT_3D ( 'NONE', #270, #79, #250 ) ;
#50 = SHAPE_DEFINITION_REPRESENTATION ( #139, #253 ) ;
#51 = LINE ( 'NONE', #293, #295 ) ;
#52 = ORIENTED_EDGE ( 'NONE', *, *, #124, .F. ) ;
#53 = VECTOR ( 'NONE', #246, 1000.000000000000000 ) ;
#54 = PERSON_AND_ORGANIZATION ( #161, #294 ) ;
#55 = CARTESIAN_POINT ( 'NONE',  ( 1.543054966925626421E-15, -12.49999999999933031, 0.9743012278291023343 ) ) ;
#56 = CC_DESIGN_PERSON_AND_ORGANIZATION_ASSIGNMENT ( #120, #135, ( #78 ) ) ;
#57 = DIRECTION ( 'NONE',  ( -0.0000000000000000000, 3.061515884555943146E-16, -1.000000000000000000 ) ) ;
#58 = DIRECTION ( 'NONE',  ( 0.0000000000000000000, 1.000000000000000000, -1.666512646385041695E-13 ) ) ;
#59 = CARTESIAN_POINT ( 'NONE',  ( 0.0000000000000000000, 3.340142585356077122E-13, 0.9743012278270193338 ) ) ;
#60 = ORIENTED_EDGE ( 'NONE', *, *, #65, .T. ) ;
#61 = VERTEX_POINT ( 'NONE', #55 ) ;
#62 =( LENGTH_UNIT ( ) NAMED_UNIT ( * ) SI_UNIT ( .MILLI., .METRE. ) );
#63 = MECHANICAL_CONTEXT ( 'NONE', #275, 'mechanical' ) ;
#64 = CARTESIAN_POINT ( 'NONE',  ( 0.0000000000000000000, 1.715198354439867410E-13, -1401.632000000000289 ) ) ;
#65 = EDGE_CURVE ( 'NONE', #99, #143, #34, .T. ) ;
#66 = CC_DESIGN_PERSON_AND_ORGANIZATION_ASSIGNMENT ( #76, #168, ( #78 ) ) ;
#67 = LINE ( 'NONE', #111, #112 ) ;
#68 = SECURITY_CLASSIFICATION ( '', '', #215 ) ;
#69 = ORIENTED_EDGE ( 'NONE', *, *, #17, .T. ) ;
#70 = DATE_TIME_ROLE ( 'classification_date' ) ;
#71 = CARTESIAN_POINT ( 'NONE',  ( 0.0000000000000000000, -12.69999999999993534, -0.8299999999957671237 ) ) ;
#72 = EDGE_CURVE ( 'NONE', #229, #61, #137, .T. ) ;
#73 = FACE_OUTER_BOUND ( 'NONE', #266, .T. ) ;
#74 = ADVANCED_FACE ( 'NONE', ( #18 ), #167, .T. ) ;
#75 = ADVANCED_FACE ( 'NONE', ( #165 ), #298, .T. ) ;
#76 = PERSON_AND_ORGANIZATION ( #161, #294 ) ;
#77 = PERSON_AND_ORGANIZATION ( #161, #294 ) ;
#78 = PRODUCT_DEFINITION_FORMATION_WITH_SPECIFIED_SOURCE ( 'ANY', '', #284, .NOT_KNOWN. ) ;
#79 = DIRECTION ( 'NONE',  ( 1.000000000000000000, 0.0000000000000000000, -0.0000000000000000000 ) ) ;
#80 = ORIENTED_EDGE ( 'NONE', *, *, #115, .T. ) ;
#81 = CARTESIAN_POINT ( 'NONE',  ( 1.555301434917134686E-15, 12.70000000000000107, -0.8300000000000000711 ) ) ;
#82 = EDGE_CURVE ( 'NONE', #10, #145, #93, .T. ) ;
#83 = CC_DESIGN_APPROVAL ( #31, ( #68 ) ) ;
#84 = DIRECTION ( 'NONE',  ( -0.0000000000000000000, -1.666487321856962191E-13, -1.000000000000000000 ) ) ;
#85 = CARTESIAN_POINT ( 'NONE',  ( 0.0000000000000000000, 1.715198354439867410E-13, -1401.632000000000289 ) ) ;
#86 = ORIENTED_EDGE ( 'NONE', *, *, #65, .F. ) ;
#87 = CYLINDRICAL_SURFACE ( 'NONE', #174, 12.70000000000000107 ) ;
#88 = DIRECTION ( 'NONE',  ( -0.0000000000000000000, 3.061515884555943146E-16, -1.000000000000000000 ) ) ;
#89 = DIRECTION ( 'NONE',  ( 0.0000000000000000000, 1.000000000000000000, -1.666462107197164164E-13 ) ) ;
#90 = PERSON_AND_ORGANIZATION_ROLE ( 'design_owner' ) ;
#91 = APPROVAL_PERSON_ORGANIZATION ( #96, #95, #117 ) ;
#92 = APPROVAL_STATUS ( 'not_yet_approved' ) ;
#93 = LINE ( 'NONE', #81, #53 ) ;
#94 = ORIENTED_EDGE ( 'NONE', *, *, #140, .F. ) ;
#95 = APPROVAL ( #116, 'UNSPECIFIED' ) ;
#96 = PERSON_AND_ORGANIZATION ( #161, #294 ) ;
#97 = EDGE_CURVE ( 'NONE', #143, #145, #273, .T. ) ;
#98 = MANIFOLD_SOLID_BREP ( 'TTN047621-1-solid1', #232 ) ;
#99 = VERTEX_POINT ( 'NONE', #32 ) ;
#100 = SPHERICAL_SURFACE ( 'NONE', #49, 1402.662000000000262 ) ;
#101 = AXIS2_PLACEMENT_3D ( 'NONE', #209, #114, #274 ) ;
#102 = ADVANCED_FACE ( 'NONE', ( #11 ), #100, .T. ) ;
#103 = EDGE_LOOP ( 'NONE', ( #129, #277, #177, #242 ) ) ;
#104 = DIRECTION ( 'NONE',  ( 0.0000000000000000000, 1.666487321856962191E-13, 1.000000000000000000 ) ) ;
#105 = ORIENTED_EDGE ( 'NONE', *, *, #82, .T. ) ;
#106 = DIRECTION ( 'NONE',  ( 1.000000000000000000, 1.224646799147353207E-16, 3.749275628560213616E-32 ) ) ;
#107 = CARTESIAN_POINT ( 'NONE',  ( 0.0000000000000000000, 3.006845120984740068E-13, 0.7743012278270523518 ) ) ;
#108 = ORIENTED_EDGE ( 'NONE', *, *, #221, .F. ) ;
#109 = DATE_AND_TIME ( #291, #197 ) ;
#110 = CARTESIAN_POINT ( 'NONE',  ( 0.0000000000000000000, 12.70000000000000107, 0.7743012278249359337 ) ) ;
#111 = CARTESIAN_POINT ( 'NONE',  ( 1.555301434917138630E-15, -12.70000000000000107, -1.030000000000004023 ) ) ;
#112 = VECTOR ( 'NONE', #254, 1000.000000000000000 ) ;
#113 = CARTESIAN_POINT ( 'NONE',  ( 0.0000000000000000000, -1.720190874930328677E-13, 1.030000000000086402 ) ) ;
#114 = DIRECTION ( 'NONE',  ( -0.0000000000000000000, -1.666487321856962191E-13, -1.000000000000000000 ) ) ;
#115 = EDGE_CURVE ( 'NONE', #61, #282, #51, .T. ) ;
#116 = APPROVAL_STATUS ( 'not_yet_approved' ) ;
#117 = APPROVAL_ROLE ( '' ) ;
#118 = AXIS2_PLACEMENT_3D ( 'NONE', #211, #185, #207 ) ;
#119 = EDGE_LOOP ( 'NONE', ( #15, #108, #60, #142 ) ) ;
#120 = PERSON_AND_ORGANIZATION ( #161, #294 ) ;
#121 = DATE_AND_TIME ( #30, #280 ) ;
#122 = PRODUCT_RELATED_PRODUCT_CATEGORY ( 'detail', '', ( #284 ) ) ;
#123 = DESIGN_CONTEXT ( 'detailed design', #258, 'design' ) ;
#124 = EDGE_CURVE ( 'NONE', #282, #297, #214, .T. ) ;
#125 = ORIENTED_EDGE ( 'NONE', *, *, #72, .T. ) ;
#126 = COORDINATED_UNIVERSAL_TIME_OFFSET ( 5, 0, .BEHIND. ) ;
#127 = CALENDAR_DATE ( 2019, 30, 5 ) ;
#128 = AXIS2_PLACEMENT_3D ( 'NONE', #141, #1, #47 ) ;
#129 = ORIENTED_EDGE ( 'NONE', *, *, #257, .F. ) ;
#130 = DIRECTION ( 'NONE',  ( 0.0000000000000000000, 1.000000000000000000, 3.073328992872295874E-16 ) ) ;
#131 = CC_DESIGN_PERSON_AND_ORGANIZATION_ASSIGNMENT ( #54, #90, ( #284 ) ) ;
#132 = EDGE_LOOP ( 'NONE', ( #26, #236, #267, #52 ) ) ;
#133 = PERSON_AND_ORGANIZATION ( #161, #294 ) ;
#134 = CIRCLE ( 'NONE', #5, 12.69999999999970086 ) ;
#135 = PERSON_AND_ORGANIZATION_ROLE ( 'creator' ) ;
#136 = EDGE_CURVE ( 'NONE', #297, #282, #134, .T. ) ;
#137 = CIRCLE ( 'NONE', #163, 12.49999999999966604 ) ;
#138 = CALENDAR_DATE ( 2019, 30, 5 ) ;
#139 = PRODUCT_DEFINITION_SHAPE ( 'NONE', 'NONE',  #4 ) ;
#140 = EDGE_CURVE ( 'NONE', #297, #145, #29, .T. ) ;
#141 = CARTESIAN_POINT ( 'NONE',  ( 0.0000000000000000000, 3.332974643749259293E-14, -0.8299999999978836529 ) ) ;
#142 = ORIENTED_EDGE ( 'NONE', *, *, #97, .T. ) ;
#143 = VERTEX_POINT ( 'NONE', #147 ) ;
#144 = FACE_OUTER_BOUND ( 'NONE', #103, .T. ) ;
#145 = VERTEX_POINT ( 'NONE', #230 ) ;
#146 = FACE_OUTER_BOUND ( 'NONE', #171, .T. ) ;
#147 = CARTESIAN_POINT ( 'NONE',  ( 1.555301434917134686E-15, -12.69999999999993534, -0.8299999999957671237 ) ) ;
#148 = EDGE_LOOP ( 'NONE', ( #157, #105, #44, #86 ) ) ;
#149 = SPHERICAL_SURFACE ( 'NONE', #169, 1402.662000000000262 ) ;
#150 = DIRECTION ( 'NONE',  ( 0.0000000000000000000, 1.000000000000000000, -1.666512646385041695E-13 ) ) ;
#151 = AXIS2_PLACEMENT_3D ( 'NONE', #27, #181, #33 ) ;
#152 = DIRECTION ( 'NONE',  ( -0.0000000000000000000, -1.666487321856962191E-13, -1.000000000000000000 ) ) ;
#153 = CARTESIAN_POINT ( 'NONE',  ( 0.0000000000000000000, 3.332974643749259293E-14, -0.8299999999978836529 ) ) ;
#154 = CONICAL_SURFACE ( 'NONE', #128, 12.69999999999996909, 0.7853981633972645371 ) ;
#155 = DIRECTION ( 'NONE',  ( 0.0000000000000000000, 1.000000000000000000, 3.061515884555943146E-16 ) ) ;
#156 = APPLICATION_PROTOCOL_DEFINITION ( 'international standard', 'config_control_design', 1994, #275 ) ;
#157 = ORIENTED_EDGE ( 'NONE', *, *, #195, .F. ) ;
#158 = DATE_AND_TIME ( #40, #237 ) ;
#159 = CONICAL_SURFACE ( 'NONE', #239, 12.69999999999996909, 0.7853981633972645371 ) ;
#160 = CARTESIAN_POINT ( 'NONE',  ( 0.0000000000000000000, 12.50000000000000000, 0.9743012278249362224 ) ) ;
#161 = PERSON ( 'UNSPECIFIED', 'UNSPECIFIED', 'UNSPECIFIED', ('UNSPECIFIED'), ('UNSPECIFIED'), ('UNSPECIFIED') ) ;
#162 = PERSON_AND_ORGANIZATION_ROLE ( 'creator' ) ;
#163 = AXIS2_PLACEMENT_3D ( 'NONE', #59, #225, #182 ) ;
#164 = DATE_TIME_ROLE ( 'creation_date' ) ;
#165 = FACE_OUTER_BOUND ( 'NONE', #218, .T. ) ;
#166 = FACE_OUTER_BOUND ( 'NONE', #119, .T. ) ;
#167 = CONICAL_SURFACE ( 'NONE', #20, 12.49999999999966604, 0.7853981633976190313 ) ;
#168 = PERSON_AND_ORGANIZATION_ROLE ( 'design_supplier' ) ;
#169 = AXIS2_PLACEMENT_3D ( 'NONE', #85, #292, #7 ) ;
#170 = ORIENTED_EDGE ( 'NONE', *, *, #235, .F. ) ;
#171 = EDGE_LOOP ( 'NONE', ( #125, #80, #187, #170 ) ) ;
#172 = CC_DESIGN_PERSON_AND_ORGANIZATION_ASSIGNMENT ( #77, #261, ( #68 ) ) ;
#173 = ADVANCED_FACE ( 'NONE', ( #166 ), #159, .T. ) ;
#174 = AXIS2_PLACEMENT_3D ( 'NONE', #204, #88, #130 ) ;
#175 = ADVANCED_FACE ( 'NONE', ( #219 ), #149, .T. ) ;
#176 = EDGE_CURVE ( 'NONE', #61, #229, #45, .T. ) ;
#177 = ORIENTED_EDGE ( 'NONE', *, *, #140, .T. ) ;
#178 = ADVANCED_FACE ( 'NONE', ( #146 ), #19, .T. ) ;
#179 = ORIENTED_EDGE ( 'NONE', *, *, #192, .F. ) ;
#180 = DIRECTION ( 'NONE',  ( 0.0000000000000000000, 1.000000000000000000, -1.666462107197164164E-13 ) ) ;
#181 = DIRECTION ( 'NONE',  ( -0.0000000000000000000, 3.061515884555943146E-16, -1.000000000000000000 ) ) ;
#182 = DIRECTION ( 'NONE',  ( 0.0000000000000000000, 1.000000000000000000, -1.666462107197164164E-13 ) ) ;
#183 = COORDINATED_UNIVERSAL_TIME_OFFSET ( 5, 0, .BEHIND. ) ;
#184 = DIRECTION ( 'NONE',  ( -0.0000000000000000000, -1.666487321856962191E-13, -1.000000000000000000 ) ) ;
#185 = DIRECTION ( 'NONE',  ( -0.0000000000000000000, -1.666487321856962191E-13, -1.000000000000000000 ) ) ;
#186 = DIRECTION ( 'NONE',  ( 0.0000000000000000000, 1.000000000000000000, -1.666512646385006607E-13 ) ) ;
#187 = ORIENTED_EDGE ( 'NONE', *, *, #136, .F. ) ;
#188 = VECTOR ( 'NONE', #244, 1000.000000000000000 ) ;
#189 = AXIS2_PLACEMENT_3D ( 'NONE', #259, #37, #155 ) ;
#190 = DIRECTION ( 'NONE',  ( 1.000000000000000000, 0.0000000000000000000, 0.0000000000000000000 ) ) ;
#191 = COORDINATED_UNIVERSAL_TIME_OFFSET ( 5, 0, .BEHIND. ) ;
#192 = EDGE_CURVE ( 'NONE', #223, #229, #238, .T. ) ;
#193 = APPLICATION_PROTOCOL_DEFINITION ( 'international standard', 'config_control_design', 1994, #258 ) ;
#194 = APPROVAL_STATUS ( 'not_yet_approved' ) ;
#195 = EDGE_CURVE ( 'NONE', #10, #99, #23, .T. ) ;
#196 = CC_DESIGN_SECURITY_CLASSIFICATION ( #68, ( #78 ) ) ;
#197 = LOCAL_TIME ( 11, 5, 44.00000000000000000, #183 ) ;
#198 = APPROVAL_DATE_TIME ( #158, #216 ) ;
#199 = APPROVAL_DATE_TIME ( #264, #95 ) ;
#200 =( GEOMETRIC_REPRESENTATION_CONTEXT ( 3 ) GLOBAL_UNCERTAINTY_ASSIGNED_CONTEXT ( ( #245 ) ) GLOBAL_UNIT_ASSIGNED_CONTEXT ( ( #62, #231, #299 ) ) REPRESENTATION_CONTEXT ( 'NONE', 'WORKASPACE' ) );
#201 = ORIENTED_EDGE ( 'NONE', *, *, #195, .T. ) ;
#202 = DIRECTION ( 'NONE',  ( 0.0000000000000000000, 1.000000000000000000, -1.666512646385006607E-13 ) ) ;
#203 = DIRECTION ( 'NONE',  ( -0.0000000000000000000, -1.666487321856962191E-13, -1.000000000000000000 ) ) ;
#204 = CARTESIAN_POINT ( 'NONE',  ( 0.0000000000000000000, 3.796279696849369796E-16, -1.030000000000000027 ) ) ;
#205 = FACE_OUTER_BOUND ( 'NONE', #148, .T. ) ;
#206 = CARTESIAN_POINT ( 'NONE',  ( 0.0000000000000000000, 3.332974643749259293E-14, -0.8299999999978836529 ) ) ;
#207 = DIRECTION ( 'NONE',  ( 0.0000000000000000000, 1.000000000000000000, -1.666548843370918576E-13 ) ) ;
#208 = AXIS2_PLACEMENT_3D ( 'NONE', #272, #106, #8 ) ;
#209 = CARTESIAN_POINT ( 'NONE',  ( 0.0000000000000000000, 3.464970479358291331E-25, -1.029999999997924798 ) ) ;
#210 = LOCAL_TIME ( 11, 5, 44.00000000000000000, #22 ) ;
#211 = CARTESIAN_POINT ( 'NONE',  ( 0.0000000000000000000, 3.464970479358291331E-25, -1.029999999997924798 ) ) ;
#212 = APPROVAL_ROLE ( '' ) ;
#213 = EDGE_LOOP ( 'NONE', ( #28, #24, #39 ) ) ;
#214 = CIRCLE ( 'NONE', #285, 12.69999999999970086 ) ;
#215 = SECURITY_CLASSIFICATION_LEVEL ( 'unclassified' ) ;
#216 = APPROVAL ( #92, 'UNSPECIFIED' ) ;
#217 = CARTESIAN_POINT ( 'NONE',  ( 1.543054966925663103E-15, 12.50000000000000000, -1.030000000000007798 ) ) ;
#218 = EDGE_LOOP ( 'NONE', ( #286, #21, #288, #94 ) ) ;
#219 = FACE_OUTER_BOUND ( 'NONE', #224, .T. ) ;
#220 = CC_DESIGN_APPROVAL ( #216, ( #4 ) ) ;
#221 = EDGE_CURVE ( 'NONE', #99, #10, #248, .T. ) ;
#222 = ADVANCED_FACE ( 'NONE', ( #144 ), #87, .T. ) ;
#223 = VERTEX_POINT ( 'NONE', #113 ) ;
#224 = EDGE_LOOP ( 'NONE', ( #179, #69, #265 ) ) ;
#225 = DIRECTION ( 'NONE',  ( -0.0000000000000000000, -1.666487321856962191E-13, -1.000000000000000000 ) ) ;
#226 = AXIS2_PLACEMENT_3D ( 'NONE', #276, #12, #89 ) ;
#227 = DIRECTION ( 'NONE',  ( 8.659560562356410740E-17, -0.7071067811867859376, -0.7071067811863089858 ) ) ;
#228 = CARTESIAN_POINT ( 'NONE',  ( 0.0000000000000000000, 3.006845120984740068E-13, 0.7743012278270523518 ) ) ;
#229 = VERTEX_POINT ( 'NONE', #300 ) ;
#230 = CARTESIAN_POINT ( 'NONE',  ( 0.0000000000000000000, 12.70000000000000107, -0.8300000000000000711 ) ) ;
#231 =( NAMED_UNIT ( * ) PLANE_ANGLE_UNIT ( ) SI_UNIT ( $, .RADIAN. ) );
#232 = CLOSED_SHELL ( 'NONE', ( #175, #178, #6, #75, #222, #173, #243, #74, #102 ) ) ;
#233 = DIRECTION ( 'NONE',  ( 0.0000000000000000000, 0.0000000000000000000, 1.000000000000000000 ) ) ;
#234 = LOCAL_TIME ( 11, 5, 44.00000000000000000, #126 ) ;
#235 = EDGE_CURVE ( 'NONE', #229, #297, #290, .T. ) ;
#236 = ORIENTED_EDGE ( 'NONE', *, *, #176, .T. ) ;
#237 = LOCAL_TIME ( 11, 5, 44.00000000000000000, #262 ) ;
#238 = CIRCLE ( 'NONE', #252, 1402.662000000000262 ) ;
#239 = AXIS2_PLACEMENT_3D ( 'NONE', #271, #104, #35 ) ;
#240 = EDGE_CURVE ( 'NONE', #145, #143, #36, .T. ) ;
#241 = VECTOR ( 'NONE', #57, 1000.000000000000000 ) ;
#242 = ORIENTED_EDGE ( 'NONE', *, *, #97, .F. ) ;
#243 = ADVANCED_FACE ( 'NONE', ( #73 ), #9, .T. ) ;
#244 = DIRECTION ( 'NONE',  ( 0.0000000000000000000, -0.7071067811862998820, 0.7071067811867952635 ) ) ;
#245 = UNCERTAINTY_MEASURE_WITH_UNIT (LENGTH_MEASURE( 1.000000000000000082E-05 ), #62, 'distance_accuracy_value', 'NONE');
#246 = DIRECTION ( 'NONE',  ( 8.659560562353341578E-17, 0.7071067811865353603, 0.7071067811865596742 ) ) ;
#247 = CARTESIAN_POINT ( 'NONE',  ( 0.0000000000000000000, 12.70000000000000107, -1.029999999999996252 ) ) ;
#248 = CIRCLE ( 'NONE', #118, 12.50000000000000000 ) ;
#249 = APPROVAL_PERSON_ORGANIZATION ( #287, #31, #212 ) ;
#250 = DIRECTION ( 'NONE',  ( 0.0000000000000000000, 1.000000000000000000, 3.166045774748745548E-16 ) ) ;
#251 = DIRECTION ( 'NONE',  ( -0.0000000000000000000, -1.666487321856962191E-13, -1.000000000000000000 ) ) ;
#252 = AXIS2_PLACEMENT_3D ( 'NONE', #64, #41, #233 ) ;
#253 = ADVANCED_BREP_SHAPE_REPRESENTATION ( 'TTN047620-E0W', ( #98, #2 ), #200 ) ;
#254 = DIRECTION ( 'NONE',  ( -0.0000000000000000000, 3.061515884555943146E-16, -1.000000000000000000 ) ) ;
#255 = PERSON_AND_ORGANIZATION ( #161, #294 ) ;
#256 = DIRECTION ( 'NONE',  ( -0.0000000000000000000, -1.666487321856962191E-13, -1.000000000000000000 ) ) ;
#257 = EDGE_CURVE ( 'NONE', #282, #143, #67, .T. ) ;
#258 = APPLICATION_CONTEXT ( 'configuration controlled 3d designs of mechanical parts and assemblies' ) ;
#259 = CARTESIAN_POINT ( 'NONE',  ( 0.0000000000000000000, 3.796279696849375220E-16, -1.030000000000002025 ) ) ;
#260 = AXIS2_PLACEMENT_3D ( 'NONE', #206, #251, #186 ) ;
#261 = PERSON_AND_ORGANIZATION_ROLE ( 'classification_officer' ) ;
#262 = COORDINATED_UNIVERSAL_TIME_OFFSET ( 5, 0, .BEHIND. ) ;
#263 = VECTOR ( 'NONE', #16, 1000.000000000000000 ) ;
#264 = DATE_AND_TIME ( #138, #210 ) ;
#265 = ORIENTED_EDGE ( 'NONE', *, *, #72, .F. ) ;
#266 = EDGE_LOOP ( 'NONE', ( #46, #201 ) ) ;
#267 = ORIENTED_EDGE ( 'NONE', *, *, #235, .T. ) ;
#268 = AXIS2_PLACEMENT_3D ( 'NONE', #153, #184, #202 ) ;
#269 = CARTESIAN_POINT ( 'NONE',  ( 0.0000000000000000000, 3.340142585356077122E-13, 0.9743012278270193338 ) ) ;
#270 = CARTESIAN_POINT ( 'NONE',  ( 0.0000000000000000000, 1.715198354439867410E-13, -1401.632000000000289 ) ) ;
#271 = CARTESIAN_POINT ( 'NONE',  ( 0.0000000000000000000, 3.332974643749259293E-14, -0.8299999999978836529 ) ) ;
#272 = CARTESIAN_POINT ( 'NONE',  ( 0.0000000000000000000, 1.715198354439867410E-13, -1401.632000000000289 ) ) ;
#273 = CIRCLE ( 'NONE', #268, 12.69999999999996909 ) ;
#274 = DIRECTION ( 'NONE',  ( 0.0000000000000000000, 1.000000000000000000, -1.666548843370918576E-13 ) ) ;
#275 = APPLICATION_CONTEXT ( 'configuration controlled 3d designs of mechanical parts and assemblies' ) ;
#276 = CARTESIAN_POINT ( 'NONE',  ( 0.0000000000000000000, 3.340142585356077122E-13, 0.9743012278270193338 ) ) ;
#277 = ORIENTED_EDGE ( 'NONE', *, *, #124, .T. ) ;
#278 = CIRCLE ( 'NONE', #208, 1402.662000000000262 ) ;
#279 = CARTESIAN_POINT ( 'NONE',  ( 0.0000000000000000000, 3.340142585356077122E-13, 0.9743012278270193338 ) ) ;
#280 = LOCAL_TIME ( 11, 5, 44.00000000000000000, #191 ) ;
#281 = CC_DESIGN_DATE_AND_TIME_ASSIGNMENT ( #109, #70, ( #68 ) ) ;
#282 = VERTEX_POINT ( 'NONE', #38 ) ;
#283 = APPROVAL_ROLE ( '' ) ;
#284 = PRODUCT ( 'TTN047620-E0W', 'TTN047620-E0W', '', ( #63 ) ) ;
#285 = AXIS2_PLACEMENT_3D ( 'NONE', #107, #152, #58 ) ;
#286 = ORIENTED_EDGE ( 'NONE', *, *, #136, .T. ) ;
#287 = PERSON_AND_ORGANIZATION ( #161, #294 ) ;
#288 = ORIENTED_EDGE ( 'NONE', *, *, #240, .F. ) ;
#289 = AXIS2_PLACEMENT_3D ( 'NONE', #279, #256, #301 ) ;
#290 = LINE ( 'NONE', #160, #263 ) ;
#291 = CALENDAR_DATE ( 2019, 30, 5 ) ;
#292 = DIRECTION ( 'NONE',  ( 1.000000000000000000, 0.0000000000000000000, -0.0000000000000000000 ) ) ;
#293 = CARTESIAN_POINT ( 'NONE',  ( 1.530808498934150501E-15, -12.49999999999933031, 0.9743012278291023343 ) ) ;
#294 = ORGANIZATION ( 'UNSPECIFIED', 'UNSPECIFIED', '' ) ;
#295 = VECTOR ( 'NONE', #227, 1000.000000000000114 ) ;
#296 = CARTESIAN_POINT ( 'NONE',  ( 0.0000000000000000000, 0.0000000000000000000, 0.0000000000000000000 ) ) ;
#297 = VERTEX_POINT ( 'NONE', #110 ) ;
#298 = CYLINDRICAL_SURFACE ( 'NONE', #151, 12.70000000000000107 ) ;
#299 =( NAMED_UNIT ( * ) SI_UNIT ( $, .STERADIAN. ) SOLID_ANGLE_UNIT ( ) );
#300 = CARTESIAN_POINT ( 'NONE',  ( 0.0000000000000000000, 12.50000000000000000, 0.9743012278249362224 ) ) ;
#301 = DIRECTION ( 'NONE',  ( 0.0000000000000000000, 1.000000000000000000, -1.666462107197164164E-13 ) ) ;
ENDSEC;
END-ISO-10303-21;
