ISO-10303-21;
HEADER;
FILE_DESCRIPTION (( 'STEP AP203' ),
    '1' );
FILE_NAME ('Web Model 19841_19893.step',
    '2022-04-06T15:20:40',
    ( 'WC' ),
    ( 'Windows Central' ),
    'SwSTEP 2.0',
    'SolidWorks 2021',
    '' );
FILE_SCHEMA (( 'CONFIG_CONTROL_DESIGN' ));
ENDSEC;

DATA;
#1 = DIRECTION ( 'NONE',  ( 0.000000000000000000, 0.000000000000000000, 1.000000000000000000 ) ) ;
#2 = APPROVAL_PERSON_ORGANIZATION ( #48, #148, #150 ) ;
#3 = AXIS2_PLACEMENT_3D ( 'NONE', #133, #89, #17 ) ;
#4 = PERSON_AND_ORGANIZATION ( #44, #98 ) ;
#5 = APPROVAL_DATE_TIME ( #59, #81 ) ;
#6 = AXIS2_PLACEMENT_3D ( 'NONE', #164, #174, #56 ) ;
#7 = CC_DESIGN_APPROVAL ( #74, ( #137 ) ) ;
#8 = PERSON_AND_ORGANIZATION_ROLE ( 'creator' ) ;
#9 = ADVANCED_FACE ( 'NONE', ( #12 ), #117, .T. ) ;
#10 = APPROVAL_DATE_TIME ( #61, #148 ) ;
#11 = APPROVAL_PERSON_ORGANIZATION ( #135, #74, #162 ) ;
#12 = FACE_OUTER_BOUND ( 'NONE', #39, .T. ) ;
#13 = APPLICATION_CONTEXT ( 'configuration controlled 3d designs of mechanical parts and assemblies' ) ;
#14 = VERTEX_POINT ( 'NONE', #65 ) ;
#15 = EDGE_LOOP ( 'NONE', ( #24, #128, #99, #160 ) ) ;
#16 = MECHANICAL_CONTEXT ( 'NONE', #146, 'mechanical' ) ;
#17 = DIRECTION ( 'NONE',  ( 1.000000000000000000, 0.000000000000000000, 0.000000000000000000 ) ) ;
#18 = CARTESIAN_POINT ( 'NONE',  ( -25.00000000000000000, 0.000000000000000000, 3.000000000000000000 ) ) ;
#19 = PRODUCT_RELATED_PRODUCT_CATEGORY ( 'detail', '', ( #119 ) ) ;
#20 =( NAMED_UNIT ( * ) PLANE_ANGLE_UNIT ( ) SI_UNIT ( $, .RADIAN. ) );
#21 = AXIS2_PLACEMENT_3D ( 'NONE', #50, #23, #171 ) ;
#22 = CALENDAR_DATE ( 2022, 6, 4 ) ;
#23 = DIRECTION ( 'NONE',  ( 0.000000000000000000, 0.000000000000000000, 1.000000000000000000 ) ) ;
#24 = ORIENTED_EDGE ( 'NONE', *, *, #40, .F. ) ;
#25 = CC_DESIGN_PERSON_AND_ORGANIZATION_ASSIGNMENT ( #93, #125, ( #127 ) ) ;
#26 = COORDINATED_UNIVERSAL_TIME_OFFSET ( 5, 0, .BEHIND. ) ;
#27 = ORIENTED_EDGE ( 'NONE', *, *, #80, .F. ) ;
#28 = APPLICATION_PROTOCOL_DEFINITION ( 'international standard', 'config_control_design', 1994, #146 ) ;
#29 = DIRECTION ( 'NONE',  ( 1.000000000000000000, 0.000000000000000000, 0.000000000000000000 ) ) ;
#30 = DIRECTION ( 'NONE',  ( 0.000000000000000000, 0.000000000000000000, 1.000000000000000000 ) ) ;
#31 = CC_DESIGN_PERSON_AND_ORGANIZATION_ASSIGNMENT ( #131, #107, ( #119 ) ) ;
#32 = FACE_OUTER_BOUND ( 'NONE', #15, .T. ) ;
#33 = APPROVAL_PERSON_ORGANIZATION ( #4, #81, #165 ) ;
#34 = APPROVAL_STATUS ( 'not_yet_approved' ) ;
#35 = ADVANCED_FACE ( 'NONE', ( #52 ), #157, .T. ) ;
#36 = DATE_AND_TIME ( #145, #62 ) ;
#37 = PERSON_AND_ORGANIZATION ( #44, #98 ) ;
#38 = LOCAL_TIME ( 11, 20, 40.00000000000000000, #26 ) ;
#39 = EDGE_LOOP ( 'NONE', ( #170, #152 ) ) ;
#40 = EDGE_CURVE ( 'NONE', #14, #75, #68, .T. ) ;
#41 = CARTESIAN_POINT ( 'NONE',  ( -25.00000000000000000, 0.000000000000000000, 3.000000000000000000 ) ) ;
#42 = DIRECTION ( 'NONE',  ( 1.000000000000000000, 0.000000000000000000, -0.000000000000000000 ) ) ;
#43 = DIRECTION ( 'NONE',  ( 1.000000000000000000, 0.000000000000000000, 0.000000000000000000 ) ) ;
#44 = PERSON ( 'UNSPECIFIED', 'UNSPECIFIED', 'UNSPECIFIED', ('UNSPECIFIED'), ('UNSPECIFIED'), ('UNSPECIFIED') ) ;
#45 = APPLICATION_PROTOCOL_DEFINITION ( 'international standard', 'config_control_design', 1994, #13 ) ;
#46 = PERSON_AND_ORGANIZATION_ROLE ( 'design_supplier' ) ;
#47 = PERSON_AND_ORGANIZATION ( #44, #98 ) ;
#48 = PERSON_AND_ORGANIZATION ( #44, #98 ) ;
#49 = CIRCLE ( 'NONE', #6, 25.00000000000000000 ) ;
#50 = CARTESIAN_POINT ( 'NONE',  ( 0.000000000000000000, 0.000000000000000000, 3.000000000000000000 ) ) ;
#51 = CLOSED_SHELL ( 'NONE', ( #35, #85, #9, #95 ) ) ;
#52 = FACE_OUTER_BOUND ( 'NONE', #101, .T. ) ;
#53 = ORIENTED_EDGE ( 'NONE', *, *, #54, .F. ) ;
#54 = EDGE_CURVE ( 'NONE', #75, #73, #91, .T. ) ;
#55 = CYLINDRICAL_SURFACE ( 'NONE', #129, 25.00000000000000000 ) ;
#56 = DIRECTION ( 'NONE',  ( 1.000000000000000000, 0.000000000000000000, 0.000000000000000000 ) ) ;
#57 = CC_DESIGN_APPROVAL ( #81, ( #102 ) ) ;
#58 = VECTOR ( 'NONE', #90, 1000.000000000000000 ) ;
#59 = DATE_AND_TIME ( #22, #38 ) ;
#60 = ADVANCED_BREP_SHAPE_REPRESENTATION ( 'Web Model 19841_19893', ( #114, #154 ), #166 ) ;
#61 = DATE_AND_TIME ( #97, #106 ) ;
#62 = LOCAL_TIME ( 11, 20, 40.00000000000000000, #84 ) ;
#63 = COORDINATED_UNIVERSAL_TIME_OFFSET ( 5, 0, .BEHIND. ) ;
#64 = CALENDAR_DATE ( 2022, 6, 4 ) ;
#65 = CARTESIAN_POINT ( 'NONE',  ( 25.00000000000000000, 3.061616997868383043E-15, 3.000000000000000000 ) ) ;
#66 = AXIS2_PLACEMENT_3D ( 'NONE', #77, #30, #104 ) ;
#67 = DIRECTION ( 'NONE',  ( -0.000000000000000000, -0.000000000000000000, -1.000000000000000000 ) ) ;
#68 = LINE ( 'NONE', #92, #100 ) ;
#69 = CARTESIAN_POINT ( 'NONE',  ( 0.000000000000000000, 0.000000000000000000, 0.000000000000000000 ) ) ;
#70 = APPROVAL_STATUS ( 'not_yet_approved' ) ;
#71 = ORIENTED_EDGE ( 'NONE', *, *, #40, .T. ) ;
#72 = VERTEX_POINT ( 'NONE', #18 ) ;
#73 = VERTEX_POINT ( 'NONE', #122 ) ;
#74 = APPROVAL ( #70, 'UNSPECIFIED' ) ;
#75 = VERTEX_POINT ( 'NONE', #76 ) ;
#76 = CARTESIAN_POINT ( 'NONE',  ( 25.00000000000000000, 3.061616997868383043E-15, 0.000000000000000000 ) ) ;
#77 = CARTESIAN_POINT ( 'NONE',  ( 0.000000000000000000, 0.000000000000000000, 3.000000000000000000 ) ) ;
#78 = FACE_OUTER_BOUND ( 'NONE', #86, .T. ) ;
#79 = DIRECTION ( 'NONE',  ( -0.000000000000000000, -0.000000000000000000, -1.000000000000000000 ) ) ;
#80 = EDGE_CURVE ( 'NONE', #14, #72, #136, .T. ) ;
#81 = APPROVAL ( #34, 'UNSPECIFIED' ) ;
#82 = DATE_AND_TIME ( #64, #105 ) ;
#83 = ORIENTED_EDGE ( 'NONE', *, *, #118, .F. ) ;
#84 = COORDINATED_UNIVERSAL_TIME_OFFSET ( 5, 0, .BEHIND. ) ;
#85 = ADVANCED_FACE ( 'NONE', ( #32 ), #55, .T. ) ;
#86 = EDGE_LOOP ( 'NONE', ( #83, #53 ) ) ;
#87 = CC_DESIGN_SECURITY_CLASSIFICATION ( #127, ( #102 ) ) ;
#88 = DIRECTION ( 'NONE',  ( -1.000000000000000000, 0.000000000000000000, 0.000000000000000000 ) ) ;
#89 = DIRECTION ( 'NONE',  ( 0.000000000000000000, 0.000000000000000000, 1.000000000000000000 ) ) ;
#90 = DIRECTION ( 'NONE',  ( -0.000000000000000000, -0.000000000000000000, -1.000000000000000000 ) ) ;
#91 = CIRCLE ( 'NONE', #116, 25.00000000000000000 ) ;
#92 = CARTESIAN_POINT ( 'NONE',  ( 25.00000000000000000, 3.061616997868383043E-15, 3.000000000000000000 ) ) ;
#93 = PERSON_AND_ORGANIZATION ( #44, #98 ) ;
#94 = APPROVAL_STATUS ( 'not_yet_approved' ) ;
#95 = ADVANCED_FACE ( 'NONE', ( #78 ), #143, .F. ) ;
#96 = CARTESIAN_POINT ( 'NONE',  ( 0.000000000000000000, 0.000000000000000000, 3.000000000000000000 ) ) ;
#97 = CALENDAR_DATE ( 2022, 6, 4 ) ;
#98 = ORGANIZATION ( 'UNSPECIFIED', 'UNSPECIFIED', '' ) ;
#99 = ORIENTED_EDGE ( 'NONE', *, *, #110, .T. ) ;
#100 = VECTOR ( 'NONE', #67, 1000.000000000000000 ) ;
#101 = EDGE_LOOP ( 'NONE', ( #27, #71, #115, #126 ) ) ;
#102 = PRODUCT_DEFINITION_FORMATION_WITH_SPECIFIED_SOURCE ( 'ANY', '', #119, .NOT_KNOWN. ) ;
#103 = LINE ( 'NONE', #41, #58 ) ;
#104 = DIRECTION ( 'NONE',  ( 1.000000000000000000, 0.000000000000000000, 0.000000000000000000 ) ) ;
#105 = LOCAL_TIME ( 11, 20, 40.00000000000000000, #141 ) ;
#106 = LOCAL_TIME ( 11, 20, 40.00000000000000000, #153 ) ;
#107 = PERSON_AND_ORGANIZATION_ROLE ( 'design_owner' ) ;
#108 = AXIS2_PLACEMENT_3D ( 'NONE', #69, #1, #42 ) ;
#109 = APPROVAL_DATE_TIME ( #82, #74 ) ;
#110 = EDGE_CURVE ( 'NONE', #72, #73, #103, .T. ) ;
#111 = SECURITY_CLASSIFICATION_LEVEL ( 'unclassified' ) ;
#112 = DATE_TIME_ROLE ( 'classification_date' ) ;
#113 = DIRECTION ( 'NONE',  ( -0.000000000000000000, -0.000000000000000000, -1.000000000000000000 ) ) ;
#114 = MANIFOLD_SOLID_BREP ( 'Boss-Extrude1', #51 ) ;
#115 = ORIENTED_EDGE ( 'NONE', *, *, #54, .T. ) ;
#116 = AXIS2_PLACEMENT_3D ( 'NONE', #144, #130, #29 ) ;
#117 = PLANE ( 'NONE',  #21 ) ;
#118 = EDGE_CURVE ( 'NONE', #73, #75, #151, .T. ) ;
#119 = PRODUCT ( 'Web Model 19841_19893', 'Web Model 19841_19893', '', ( #16 ) ) ;
#120 = CARTESIAN_POINT ( 'NONE',  ( 0.000000000000000000, 0.000000000000000000, 0.000000000000000000 ) ) ;
#121 = CC_DESIGN_PERSON_AND_ORGANIZATION_ASSIGNMENT ( #47, #46, ( #102 ) ) ;
#122 = CARTESIAN_POINT ( 'NONE',  ( -25.00000000000000000, 0.000000000000000000, 0.000000000000000000 ) ) ;
#123 = PERSON_AND_ORGANIZATION_ROLE ( 'creator' ) ;
#124 = PERSON_AND_ORGANIZATION ( #44, #98 ) ;
#125 = PERSON_AND_ORGANIZATION_ROLE ( 'classification_officer' ) ;
#126 = ORIENTED_EDGE ( 'NONE', *, *, #110, .F. ) ;
#127 = SECURITY_CLASSIFICATION ( '', '', #111 ) ;
#128 = ORIENTED_EDGE ( 'NONE', *, *, #172, .F. ) ;
#129 = AXIS2_PLACEMENT_3D ( 'NONE', #175, #79, #88 ) ;
#130 = DIRECTION ( 'NONE',  ( 0.000000000000000000, 0.000000000000000000, 1.000000000000000000 ) ) ;
#131 = PERSON_AND_ORGANIZATION ( #44, #98 ) ;
#132 =( NAMED_UNIT ( * ) SI_UNIT ( $, .STERADIAN. ) SOLID_ANGLE_UNIT ( ) );
#133 = CARTESIAN_POINT ( 'NONE',  ( 0.000000000000000000, 0.000000000000000000, 0.000000000000000000 ) ) ;
#134 = PRODUCT_DEFINITION_SHAPE ( 'NONE', 'NONE',  #137 ) ;
#135 = PERSON_AND_ORGANIZATION ( #44, #98 ) ;
#136 = CIRCLE ( 'NONE', #66, 25.00000000000000000 ) ;
#137 = PRODUCT_DEFINITION ( 'UNKNOWN', '', #102, #156 ) ;
#138 = UNCERTAINTY_MEASURE_WITH_UNIT (LENGTH_MEASURE( 1.000000000000000082E-05 ), #161, 'distance_accuracy_value', 'NONE');
#139 = DATE_TIME_ROLE ( 'creation_date' ) ;
#140 = LOCAL_TIME ( 11, 20, 40.00000000000000000, #63 ) ;
#141 = COORDINATED_UNIVERSAL_TIME_OFFSET ( 5, 0, .BEHIND. ) ;
#142 = AXIS2_PLACEMENT_3D ( 'NONE', #96, #113, #173 ) ;
#143 = PLANE ( 'NONE',  #108 ) ;
#144 = CARTESIAN_POINT ( 'NONE',  ( 0.000000000000000000, 0.000000000000000000, 0.000000000000000000 ) ) ;
#145 = CALENDAR_DATE ( 2022, 6, 4 ) ;
#146 = APPLICATION_CONTEXT ( 'configuration controlled 3d designs of mechanical parts and assemblies' ) ;
#147 = CC_DESIGN_PERSON_AND_ORGANIZATION_ASSIGNMENT ( #124, #8, ( #102 ) ) ;
#148 = APPROVAL ( #94, 'UNSPECIFIED' ) ;
#149 = CC_DESIGN_APPROVAL ( #148, ( #127 ) ) ;
#150 = APPROVAL_ROLE ( '' ) ;
#151 = CIRCLE ( 'NONE', #3, 25.00000000000000000 ) ;
#152 = ORIENTED_EDGE ( 'NONE', *, *, #80, .T. ) ;
#153 = COORDINATED_UNIVERSAL_TIME_OFFSET ( 5, 0, .BEHIND. ) ;
#154 = AXIS2_PLACEMENT_3D ( 'NONE', #120, #163, #43 ) ;
#155 = SHAPE_DEFINITION_REPRESENTATION ( #134, #60 ) ;
#156 = DESIGN_CONTEXT ( 'detailed design', #13, 'design' ) ;
#157 = CYLINDRICAL_SURFACE ( 'NONE', #142, 25.00000000000000000 ) ;
#158 = CC_DESIGN_DATE_AND_TIME_ASSIGNMENT ( #36, #139, ( #137 ) ) ;
#159 = CC_DESIGN_PERSON_AND_ORGANIZATION_ASSIGNMENT ( #37, #123, ( #137 ) ) ;
#160 = ORIENTED_EDGE ( 'NONE', *, *, #118, .T. ) ;
#161 =( LENGTH_UNIT ( ) NAMED_UNIT ( * ) SI_UNIT ( .MILLI., .METRE. ) );
#162 = APPROVAL_ROLE ( '' ) ;
#163 = DIRECTION ( 'NONE',  ( 0.000000000000000000, 0.000000000000000000, 1.000000000000000000 ) ) ;
#164 = CARTESIAN_POINT ( 'NONE',  ( 0.000000000000000000, 0.000000000000000000, 3.000000000000000000 ) ) ;
#165 = APPROVAL_ROLE ( '' ) ;
#166 =( GEOMETRIC_REPRESENTATION_CONTEXT ( 3 ) GLOBAL_UNCERTAINTY_ASSIGNED_CONTEXT ( ( #138 ) ) GLOBAL_UNIT_ASSIGNED_CONTEXT ( ( #161, #20, #132 ) ) REPRESENTATION_CONTEXT ( 'NONE', 'WORKASPACE' ) );
#167 = CC_DESIGN_DATE_AND_TIME_ASSIGNMENT ( #168, #112, ( #127 ) ) ;
#168 = DATE_AND_TIME ( #169, #140 ) ;
#169 = CALENDAR_DATE ( 2022, 6, 4 ) ;
#170 = ORIENTED_EDGE ( 'NONE', *, *, #172, .T. ) ;
#171 = DIRECTION ( 'NONE',  ( 1.000000000000000000, 0.000000000000000000, -0.000000000000000000 ) ) ;
#172 = EDGE_CURVE ( 'NONE', #72, #14, #49, .T. ) ;
#173 = DIRECTION ( 'NONE',  ( -1.000000000000000000, 0.000000000000000000, 0.000000000000000000 ) ) ;
#174 = DIRECTION ( 'NONE',  ( 0.000000000000000000, 0.000000000000000000, 1.000000000000000000 ) ) ;
#175 = CARTESIAN_POINT ( 'NONE',  ( 0.000000000000000000, 0.000000000000000000, 3.000000000000000000 ) ) ;
ENDSEC;
END-ISO-10303-21;
