ISO-10303-21;
HEADER;
FILE_DESCRIPTION (( 'STEP AP203' ),
    '1' );
FILE_NAME ('4268-E0W.STEP',
    '2015-05-29T14:18:37',
    ( 'admin' ),
    ( '' ),
    'SwSTEP 2.0',
    'SolidWorks 2014',
    '' );
FILE_SCHEMA (( 'CONFIG_CONTROL_DESIGN' ));
ENDSEC;

DATA;
#1 = CARTESIAN_POINT ( 'NONE',  ( -0.05000000000000230000, 0.0000000000000000000, 0.0000000000000000000 ) ) ;
#2 = DIRECTION ( 'NONE',  ( 1.000000000000000000, 0.0000000000000000000, 0.0000000000000000000 ) ) ;
#3 = ORIENTED_EDGE ( 'NONE', *, *, #99, .T. ) ;
#4 = AXIS2_PLACEMENT_3D ( 'NONE', #195, #83, #113 ) ;
#5 = DIRECTION ( 'NONE',  ( 0.7071067811865474600, 8.659560562354932900E-017, 0.7071067811865474600 ) ) ;
#6 = PRODUCT ( '4268-E0W', '4268-E0W', '', ( #214 ) ) ;
#7 = CYLINDRICAL_SURFACE ( 'NONE', #24, 2.999999999999999600 ) ;
#8 = EDGE_CURVE ( 'NONE', #141, #154, #142, .T. ) ;
#9 = SHAPE_DEFINITION_REPRESENTATION ( #226, #136 ) ;
#10 = PERSON_AND_ORGANIZATION ( #13, #75 ) ;
#11 = FACE_OUTER_BOUND ( 'NONE', #139, .T. ) ;
#12 = AXIS2_PLACEMENT_3D ( 'NONE', #193, #35, #27 ) ;
#13 = PERSON ( 'UNSPECIFIED', 'UNSPECIFIED', 'UNSPECIFIED', ('UNSPECIFIED'), ('UNSPECIFIED'), ('UNSPECIFIED') ) ;
#14 = CONICAL_SURFACE ( 'NONE', #240, 2.999999999999999600, 0.4323219558303959500 ) ;
#15 = DIRECTION ( 'NONE',  ( 1.000000000000000000, 0.0000000000000000000, 0.0000000000000000000 ) ) ;
#16 = EDGE_CURVE ( 'NONE', #141, #98, #110, .T. ) ;
#17 = DIRECTION ( 'NONE',  ( -1.000000000000000000, -0.0000000000000000000, -0.0000000000000000000 ) ) ;
#18 = ADVANCED_FACE ( 'NONE', ( #253 ), #54, .T. ) ;
#19 = CARTESIAN_POINT ( 'NONE',  ( -1.300000000000000000, 0.0000000000000000000, 0.0000000000000000000 ) ) ;
#20 = EDGE_CURVE ( 'NONE', #98, #154, #216, .T. ) ;
#21 = DIRECTION ( 'NONE',  ( 0.0000000000000000000, 0.0000000000000000000, 1.000000000000000000 ) ) ;
#22 = UNCERTAINTY_MEASURE_WITH_UNIT (LENGTH_MEASURE( 1.000000000000000100E-005 ), #272, 'distance_accuracy_value', 'NONE');
#23 = CARTESIAN_POINT ( 'NONE',  ( -1.049999999999999400, 0.0000000000000000000, 0.0000000000000000000 ) ) ;
#24 = AXIS2_PLACEMENT_3D ( 'NONE', #231, #277, #135 ) ;
#25 = CARTESIAN_POINT ( 'NONE',  ( -3.299975514127742900, 0.0000000000000000000, 0.0000000000000000000 ) ) ;
#26 = CARTESIAN_POINT ( 'NONE',  ( 0.0000000000000000000, 0.0000000000000000000, 0.0000000000000000000 ) ) ;
#27 = DIRECTION ( 'NONE',  ( 0.0000000000000000000, 0.0000000000000000000, 1.000000000000000000 ) ) ;
#28 = CIRCLE ( 'NONE', #128, 2.999999999999999600 ) ;
#29 = LOCAL_TIME ( 10, 18, 37.00000000000000000, #269 ) ;
#30 = CARTESIAN_POINT ( 'NONE',  ( -0.05000000000000230000, 0.0000000000000000000, 0.0000000000000000000 ) ) ;
#31 = APPLICATION_CONTEXT ( 'configuration controlled 3d designs of mechanical parts and assemblies' ) ;
#32 = TOROIDAL_SURFACE ( 'NONE', #61, 0.01500897815316106500, 4.599999999999998800 ) ;
#33 = DIRECTION ( 'NONE',  ( 0.0000000000000000000, 0.0000000000000000000, -1.000000000000000000 ) ) ;
#34 = AXIS2_PLACEMENT_3D ( 'NONE', #228, #162, #190 ) ;
#35 = DIRECTION ( 'NONE',  ( -1.000000000000000000, -0.0000000000000000000, -0.0000000000000000000 ) ) ;
#36 = ORIENTED_EDGE ( 'NONE', *, *, #219, .T. ) ;
#37 = DIRECTION ( 'NONE',  ( 0.0000000000000000000, 0.0000000000000000000, -1.000000000000000000 ) ) ;
#38 = AXIS2_PLACEMENT_3D ( 'NONE', #230, #81, #57 ) ;
#39 = ORIENTED_EDGE ( 'NONE', *, *, #16, .T. ) ;
#40 = APPROVAL_PERSON_ORGANIZATION ( #189, #215, #76 ) ;
#41 = CIRCLE ( 'NONE', #163, 2.749999999999999100 ) ;
#42 = APPROVAL_ROLE ( '' ) ;
#43 = CARTESIAN_POINT ( 'NONE',  ( -0.05000000000000230000, 0.0000000000000000000, 2.999999999999999600 ) ) ;
#44 = CARTESIAN_POINT ( 'NONE',  ( -1.049999999999999400, 0.0000000000000000000, 0.0000000000000000000 ) ) ;
#45 = LINE ( 'NONE', #296, #249 ) ;
#46 = DESIGN_CONTEXT ( 'detailed design', #31, 'design' ) ;
#47 = DIRECTION ( 'NONE',  ( 1.000000000000000000, 0.0000000000000000000, 0.0000000000000000000 ) ) ;
#48 = DIRECTION ( 'NONE',  ( -0.0000000000000000000, 1.000000000000000000, 1.224646799147353200E-016 ) ) ;
#49 = DATE_AND_TIME ( #93, #29 ) ;
#50 = DIRECTION ( 'NONE',  ( -1.000000000000000000, -0.0000000000000000000, -0.0000000000000000000 ) ) ;
#51 = DIRECTION ( 'NONE',  ( -1.000000000000000000, -0.0000000000000000000, -0.0000000000000000000 ) ) ;
#52 = EDGE_CURVE ( 'NONE', #90, #204, #126, .T. ) ;
#53 = ORIENTED_EDGE ( 'NONE', *, *, #20, .T. ) ;
#54 = TOROIDAL_SURFACE ( 'NONE', #34, 0.01500897815316106500, 4.599999999999998800 ) ;
#55 = ORIENTED_EDGE ( 'NONE', *, *, #275, .T. ) ;
#56 = CARTESIAN_POINT ( 'NONE',  ( -1.300000000000000000, 0.0000000000000000000, 2.999999999999999600 ) ) ;
#57 = DIRECTION ( 'NONE',  ( 0.0000000000000000000, 0.0000000000000000000, -1.000000000000000000 ) ) ;
#58 = ORIENTED_EDGE ( 'NONE', *, *, #213, .T. ) ;
#59 = CONICAL_SURFACE ( 'NONE', #133, 2.999999999999999600, 0.4323219558303959500 ) ;
#60 = DIRECTION ( 'NONE',  ( 0.0000000000000000000, 0.0000000000000000000, -1.000000000000000000 ) ) ;
#61 = AXIS2_PLACEMENT_3D ( 'NONE', #25, #65, #97 ) ;
#62 = DIRECTION ( 'NONE',  ( 0.7071067811865474600, 0.0000000000000000000, -0.7071067811865474600 ) ) ;
#63 = EDGE_LOOP ( 'NONE', ( #210, #177 ) ) ;
#64 = EDGE_LOOP ( 'NONE', ( #92, #221, #100, #132 ) ) ;
#65 = DIRECTION ( 'NONE',  ( -1.000000000000000000, -0.0000000000000000000, -0.0000000000000000000 ) ) ;
#66 = APPLICATION_PROTOCOL_DEFINITION ( 'international standard', 'config_control_design', 1994, #31 ) ;
#67 = DIRECTION ( 'NONE',  ( 0.0000000000000000000, 0.0000000000000000000, 1.000000000000000000 ) ) ;
#68 = ORIENTED_EDGE ( 'NONE', *, *, #263, .T. ) ;
#69 = ORIENTED_EDGE ( 'NONE', *, *, #150, .T. ) ;
#70 = DIRECTION ( 'NONE',  ( 1.000000000000000000, 0.0000000000000000000, 0.0000000000000000000 ) ) ;
#71 = AXIS2_PLACEMENT_3D ( 'NONE', #26, #274, #70 ) ;
#72 = DIRECTION ( 'NONE',  ( 1.000000000000000000, 0.0000000000000000000, 0.0000000000000000000 ) ) ;
#73 = CARTESIAN_POINT ( 'NONE',  ( -1.300000000000000000, 0.0000000000000000000, -2.749999999999999100 ) ) ;
#74 = LINE ( 'NONE', #109, #94 ) ;
#75 = ORGANIZATION ( 'UNSPECIFIED', 'UNSPECIFIED', '' ) ;
#76 = APPROVAL_ROLE ( '' ) ;
#77 = CONICAL_SURFACE ( 'NONE', #96, 2.749999999999999100, 0.7853981633974482800 ) ;
#78 = CARTESIAN_POINT ( 'NONE',  ( 0.3490119130195941700, 0.0000000000000000000, 2.815882191370896200 ) ) ;
#79 = ADVANCED_FACE ( 'NONE', ( #80 ), #111, .T. ) ;
#80 = FACE_OUTER_BOUND ( 'NONE', #105, .T. ) ;
#81 = DIRECTION ( 'NONE',  ( 0.0000000000000000000, -1.000000000000000000, 0.0000000000000000000 ) ) ;
#82 = LINE ( 'NONE', #73, #191 ) ;
#83 = DIRECTION ( 'NONE',  ( -1.000000000000000000, -0.0000000000000000000, -0.0000000000000000000 ) ) ;
#84 = AXIS2_PLACEMENT_3D ( 'NONE', #130, #48, #298 ) ;
#85 = CARTESIAN_POINT ( 'NONE',  ( -0.05000000000000230000, 0.0000000000000000000, 0.0000000000000000000 ) ) ;
#86 = VECTOR ( 'NONE', #17, 1000.000000000000000 ) ;
#87 = PERSON_AND_ORGANIZATION_ROLE ( 'classification_officer' ) ;
#88 = APPROVAL_STATUS ( 'not_yet_approved' ) ;
#89 = PRODUCT_RELATED_PRODUCT_CATEGORY ( 'detail', '', ( #6 ) ) ;
#90 = VERTEX_POINT ( 'NONE', #157 ) ;
#91 = ORIENTED_EDGE ( 'NONE', *, *, #297, .F. ) ;
#92 = ORIENTED_EDGE ( 'NONE', *, *, #168, .F. ) ;
#93 = CALENDAR_DATE ( 2015, 29, 5 ) ;
#94 = VECTOR ( 'NONE', #165, 1000.000000000000100 ) ;
#95 = ORIENTED_EDGE ( 'NONE', *, *, #219, .F. ) ;
#96 = AXIS2_PLACEMENT_3D ( 'NONE', #211, #121, #60 ) ;
#97 = DIRECTION ( 'NONE',  ( 0.0000000000000000000, 0.0000000000000000000, 1.000000000000000000 ) ) ;
#98 = VERTEX_POINT ( 'NONE', #78 ) ;
#99 = EDGE_CURVE ( 'NONE', #267, #276, #45, .T. ) ;
#100 = ORIENTED_EDGE ( 'NONE', *, *, #291, .T. ) ;
#101 = ORIENTED_EDGE ( 'NONE', *, *, #8, .F. ) ;
#102 = ORIENTED_EDGE ( 'NONE', *, *, #263, .F. ) ;
#103 = DATE_AND_TIME ( #146, #287 ) ;
#104 = AXIS2_PLACEMENT_3D ( 'NONE', #245, #107, #164 ) ;
#105 = EDGE_LOOP ( 'NONE', ( #68, #3, #69, #114 ) ) ;
#106 = AXIS2_PLACEMENT_3D ( 'NONE', #1, #50, #21 ) ;
#107 = DIRECTION ( 'NONE',  ( 1.000000000000000000, 0.0000000000000000000, 0.0000000000000000000 ) ) ;
#108 = AXIS2_PLACEMENT_3D ( 'NONE', #289, #248, #218 ) ;
#109 = CARTESIAN_POINT ( 'NONE',  ( -0.05000000000000230000, 3.673940397442058400E-016, -2.999999999999999600 ) ) ;
#110 = CIRCLE ( 'NONE', #38, 4.599999999999998800 ) ;
#111 = CYLINDRICAL_SURFACE ( 'NONE', #4, 2.999999999999999600 ) ;
#112 = CIRCLE ( 'NONE', #104, 2.815882191370895300 ) ;
#113 = DIRECTION ( 'NONE',  ( 0.0000000000000000000, 0.0000000000000000000, 1.000000000000000000 ) ) ;
#114 = ORIENTED_EDGE ( 'NONE', *, *, #197, .F. ) ;
#115 = ORIENTED_EDGE ( 'NONE', *, *, #192, .T. ) ;
#116 = DATE_AND_TIME ( #294, #143 ) ;
#117 = DIRECTION ( 'NONE',  ( 0.0000000000000000000, 0.0000000000000000000, 1.000000000000000000 ) ) ;
#118 = ADVANCED_FACE ( 'NONE', ( #187 ), #14, .T. ) ;
#119 = DIRECTION ( 'NONE',  ( 0.0000000000000000000, 0.0000000000000000000, 1.000000000000000000 ) ) ;
#120 = EDGE_LOOP ( 'NONE', ( #256, #145, #58 ) ) ;
#121 = DIRECTION ( 'NONE',  ( 1.000000000000000000, 0.0000000000000000000, 0.0000000000000000000 ) ) ;
#122 = ORIENTED_EDGE ( 'NONE', *, *, #291, .F. ) ;
#123 = ADVANCED_FACE ( 'NONE', ( #11 ), #32, .T. ) ;
#124 = VECTOR ( 'NONE', #278, 1000.000000000000100 ) ;
#125 = AXIS2_PLACEMENT_3D ( 'NONE', #202, #2, #201 ) ;
#126 = CIRCLE ( 'NONE', #108, 2.749999999999999100 ) ;
#127 = LINE ( 'NONE', #251, #262 ) ;
#128 = AXIS2_PLACEMENT_3D ( 'NONE', #23, #236, #37 ) ;
#129 = APPLICATION_CONTEXT ( 'configuration controlled 3d designs of mechanical parts and assemblies' ) ;
#130 = CARTESIAN_POINT ( 'NONE',  ( -3.299975514127742900, 1.838069705374125100E-018, -0.01500897815316106500 ) ) ;
#131 = EDGE_LOOP ( 'NONE', ( #182, #55, #153, #91 ) ) ;
#132 = ORIENTED_EDGE ( 'NONE', *, *, #192, .F. ) ;
#133 = AXIS2_PLACEMENT_3D ( 'NONE', #85, #51, #67 ) ;
#134 = APPROVAL_DATE_TIME ( #167, #215 ) ;
#135 = DIRECTION ( 'NONE',  ( 0.0000000000000000000, 0.0000000000000000000, 1.000000000000000000 ) ) ;
#136 = ADVANCED_BREP_SHAPE_REPRESENTATION ( '4268-E0W', ( #292, #71 ), #206 ) ;
#137 = PRODUCT_DEFINITION ( 'UNKNOWN', '', #199, #46 ) ;
#138 = CARTESIAN_POINT ( 'NONE',  ( -0.05000000000000230000, 0.0000000000000000000, 2.999999999999999600 ) ) ;
#139 = EDGE_LOOP ( 'NONE', ( #101, #39, #53 ) ) ;
#140 = CC_DESIGN_PERSON_AND_ORGANIZATION_ASSIGNMENT ( #166, #181, ( #6 ) ) ;
#141 = VERTEX_POINT ( 'NONE', #266 ) ;
#142 = CIRCLE ( 'NONE', #84, 4.599999999999998800 ) ;
#143 = LOCAL_TIME ( 10, 18, 37.00000000000000000, #238 ) ;
#144 = ORIENTED_EDGE ( 'NONE', *, *, #213, .F. ) ;
#145 = ORIENTED_EDGE ( 'NONE', *, *, #8, .T. ) ;
#146 = CALENDAR_DATE ( 2015, 29, 5 ) ;
#147 = AXIS2_PLACEMENT_3D ( 'NONE', #194, #47, #119 ) ;
#148 = APPROVAL ( #285, 'UNSPECIFIED' ) ;
#149 = CALENDAR_DATE ( 2015, 29, 5 ) ;
#150 = EDGE_CURVE ( 'NONE', #276, #151, #28, .T. ) ;
#151 = VERTEX_POINT ( 'NONE', #246 ) ;
#152 = ADVANCED_FACE ( 'NONE', ( #170 ), #59, .T. ) ;
#153 = ORIENTED_EDGE ( 'NONE', *, *, #150, .F. ) ;
#154 = VERTEX_POINT ( 'NONE', #198 ) ;
#155 = EDGE_CURVE ( 'NONE', #204, #90, #41, .T. ) ;
#156 = CIRCLE ( 'NONE', #12, 2.999999999999999600 ) ;
#157 = CARTESIAN_POINT ( 'NONE',  ( -1.300000000000000000, 3.520859547548639500E-016, 2.749999999999999100 ) ) ;
#158 = PERSON_AND_ORGANIZATION_ROLE ( 'creator' ) ;
#159 = EDGE_LOOP ( 'NONE', ( #290, #115, #225, #36 ) ) ;
#160 = CARTESIAN_POINT ( 'NONE',  ( -1.300000000000000000, 0.0000000000000000000, -2.749999999999999100 ) ) ;
#161 = SECURITY_CLASSIFICATION_LEVEL ( 'unclassified' ) ;
#162 = DIRECTION ( 'NONE',  ( -1.000000000000000000, -0.0000000000000000000, -0.0000000000000000000 ) ) ;
#163 = AXIS2_PLACEMENT_3D ( 'NONE', #19, #279, #299 ) ;
#164 = DIRECTION ( 'NONE',  ( 0.0000000000000000000, 0.0000000000000000000, 1.000000000000000000 ) ) ;
#165 = DIRECTION ( 'NONE',  ( -0.9079953446207286200, 5.131028282899302300E-017, -0.4189802550802178600 ) ) ;
#166 = PERSON_AND_ORGANIZATION ( #13, #75 ) ;
#167 = DATE_AND_TIME ( #149, #171 ) ;
#168 = EDGE_CURVE ( 'NONE', #154, #267, #74, .T. ) ;
#169 = CC_DESIGN_APPROVAL ( #148, ( #137 ) ) ;
#170 = FACE_OUTER_BOUND ( 'NONE', #64, .T. ) ;
#171 = LOCAL_TIME ( 10, 18, 37.00000000000000000, #301 ) ;
#172 = DIRECTION ( 'NONE',  ( -1.000000000000000000, -0.0000000000000000000, -0.0000000000000000000 ) ) ;
#173 = EDGE_LOOP ( 'NONE', ( #222, #229, #273, #95 ) ) ;
#174 = CC_DESIGN_PERSON_AND_ORGANIZATION_ASSIGNMENT ( #280, #158, ( #137 ) ) ;
#175 = ADVANCED_FACE ( 'NONE', ( #178 ), #77, .T. ) ;
#176 = FACE_OUTER_BOUND ( 'NONE', #131, .T. ) ;
#177 = ORIENTED_EDGE ( 'NONE', *, *, #52, .T. ) ;
#178 = FACE_OUTER_BOUND ( 'NONE', #173, .T. ) ;
#179 = LINE ( 'NONE', #43, #124 ) ;
#180 = CC_DESIGN_DATE_AND_TIME_ASSIGNMENT ( #49, #227, ( #137 ) ) ;
#181 = PERSON_AND_ORGANIZATION_ROLE ( 'design_owner' ) ;
#182 = ORIENTED_EDGE ( 'NONE', *, *, #52, .F. ) ;
#183 = PERSON_AND_ORGANIZATION ( #13, #75 ) ;
#184 = CARTESIAN_POINT ( 'NONE',  ( -1.049999999999999400, 3.673940397442059400E-016, -2.999999999999999600 ) ) ;
#185 = CC_DESIGN_APPROVAL ( #252, ( #247 ) ) ;
#186 = VERTEX_POINT ( 'NONE', #138 ) ;
#187 = FACE_OUTER_BOUND ( 'NONE', #200, .T. ) ;
#188 = APPROVAL_PERSON_ORGANIZATION ( #268, #252, #224 ) ;
#189 = PERSON_AND_ORGANIZATION ( #13, #75 ) ;
#190 = DIRECTION ( 'NONE',  ( 0.0000000000000000000, 0.0000000000000000000, 1.000000000000000000 ) ) ;
#191 = VECTOR ( 'NONE', #62, 1000.000000000000100 ) ;
#192 = EDGE_CURVE ( 'NONE', #267, #186, #265, .T. ) ;
#193 = CARTESIAN_POINT ( 'NONE',  ( -0.05000000000000230000, 0.0000000000000000000, 0.0000000000000000000 ) ) ;
#194 = CARTESIAN_POINT ( 'NONE',  ( 0.3490119130195941700, 0.0000000000000000000, 0.0000000000000000000 ) ) ;
#195 = CARTESIAN_POINT ( 'NONE',  ( -1.300000000000000000, 0.0000000000000000000, 0.0000000000000000000 ) ) ;
#196 = ADVANCED_FACE ( 'NONE', ( #176 ), #233, .T. ) ;
#197 = EDGE_CURVE ( 'NONE', #186, #151, #255, .T. ) ;
#198 = CARTESIAN_POINT ( 'NONE',  ( 0.3490119130195941700, 3.448461112438402100E-016, -2.815882191370896200 ) ) ;
#199 = PRODUCT_DEFINITION_FORMATION_WITH_SPECIFIED_SOURCE ( 'ANY', '', #6, .NOT_KNOWN. ) ;
#200 = EDGE_LOOP ( 'NONE', ( #144, #220, #102, #122 ) ) ;
#201 = DIRECTION ( 'NONE',  ( 0.0000000000000000000, 0.0000000000000000000, -1.000000000000000000 ) ) ;
#202 = CARTESIAN_POINT ( 'NONE',  ( -1.300000000000000000, 0.0000000000000000000, 0.0000000000000000000 ) ) ;
#203 = ADVANCED_FACE ( 'NONE', ( #208 ), #207, .F. ) ;
#204 = VERTEX_POINT ( 'NONE', #160 ) ;
#205 = AXIS2_PLACEMENT_3D ( 'NONE', #235, #72, #288 ) ;
#206 =( GEOMETRIC_REPRESENTATION_CONTEXT ( 3 ) GLOBAL_UNCERTAINTY_ASSIGNED_CONTEXT ( ( #22 ) ) GLOBAL_UNIT_ASSIGNED_CONTEXT ( ( #272, #270, #281 ) ) REPRESENTATION_CONTEXT ( 'NONE', 'WORKASPACE' ) );
#207 = PLANE ( 'NONE',  #205 ) ;
#208 = FACE_OUTER_BOUND ( 'NONE', #63, .T. ) ;
#209 = APPROVAL_STATUS ( 'not_yet_approved' ) ;
#210 = ORIENTED_EDGE ( 'NONE', *, *, #155, .T. ) ;
#211 = CARTESIAN_POINT ( 'NONE',  ( -1.300000000000000000, 0.0000000000000000000, 0.0000000000000000000 ) ) ;
#212 = CARTESIAN_POINT ( 'NONE',  ( -0.05000000000000230000, 3.673940397442059400E-016, -2.999999999999999600 ) ) ;
#213 = EDGE_CURVE ( 'NONE', #154, #98, #112, .T. ) ;
#214 = MECHANICAL_CONTEXT ( 'NONE', #129, 'mechanical' ) ;
#215 = APPROVAL ( #88, 'UNSPECIFIED' ) ;
#216 = CIRCLE ( 'NONE', #147, 2.815882191370895300 ) ;
#217 = PERSON_AND_ORGANIZATION ( #13, #75 ) ;
#218 = DIRECTION ( 'NONE',  ( 0.0000000000000000000, 0.0000000000000000000, -1.000000000000000000 ) ) ;
#219 = EDGE_CURVE ( 'NONE', #151, #276, #239, .T. ) ;
#220 = ORIENTED_EDGE ( 'NONE', *, *, #168, .T. ) ;
#221 = ORIENTED_EDGE ( 'NONE', *, *, #20, .F. ) ;
#222 = ORIENTED_EDGE ( 'NONE', *, *, #275, .F. ) ;
#223 = CC_DESIGN_APPROVAL ( #215, ( #199 ) ) ;
#224 = APPROVAL_ROLE ( '' ) ;
#225 = ORIENTED_EDGE ( 'NONE', *, *, #197, .T. ) ;
#226 = PRODUCT_DEFINITION_SHAPE ( 'NONE', 'NONE',  #137 ) ;
#227 = DATE_TIME_ROLE ( 'creation_date' ) ;
#228 = CARTESIAN_POINT ( 'NONE',  ( -3.299975514127742900, 0.0000000000000000000, 0.0000000000000000000 ) ) ;
#229 = ORIENTED_EDGE ( 'NONE', *, *, #155, .F. ) ;
#230 = CARTESIAN_POINT ( 'NONE',  ( -3.299975514127742900, 0.0000000000000000000, 0.01500897815316106500 ) ) ;
#231 = CARTESIAN_POINT ( 'NONE',  ( -1.300000000000000000, 0.0000000000000000000, 0.0000000000000000000 ) ) ;
#232 = CC_DESIGN_PERSON_AND_ORGANIZATION_ASSIGNMENT ( #183, #244, ( #199 ) ) ;
#233 = CONICAL_SURFACE ( 'NONE', #125, 2.749999999999999100, 0.7853981633974482800 ) ;
#234 = CC_DESIGN_PERSON_AND_ORGANIZATION_ASSIGNMENT ( #10, #260, ( #199 ) ) ;
#235 = CARTESIAN_POINT ( 'NONE',  ( -1.300000000000000000, 0.0000000000000000000, 0.0000000000000000000 ) ) ;
#236 = DIRECTION ( 'NONE',  ( 1.000000000000000000, 0.0000000000000000000, 0.0000000000000000000 ) ) ;
#237 = CLOSED_SHELL ( 'NONE', ( #196, #118, #18, #79, #203, #243, #123, #152, #175 ) ) ;
#238 = COORDINATED_UNIVERSAL_TIME_OFFSET ( 5, 0, .BEHIND. ) ;
#239 = CIRCLE ( 'NONE', #283, 2.999999999999999600 ) ;
#240 = AXIS2_PLACEMENT_3D ( 'NONE', #30, #172, #117 ) ;
#241 = COORDINATED_UNIVERSAL_TIME_OFFSET ( 5, 0, .BEHIND. ) ;
#242 = CC_DESIGN_PERSON_AND_ORGANIZATION_ASSIGNMENT ( #217, #87, ( #247 ) ) ;
#243 = ADVANCED_FACE ( 'NONE', ( #286 ), #7, .T. ) ;
#244 = PERSON_AND_ORGANIZATION_ROLE ( 'design_supplier' ) ;
#245 = CARTESIAN_POINT ( 'NONE',  ( 0.3490119130195941700, 0.0000000000000000000, 0.0000000000000000000 ) ) ;
#246 = CARTESIAN_POINT ( 'NONE',  ( -1.049999999999999400, 0.0000000000000000000, 2.999999999999999600 ) ) ;
#247 = SECURITY_CLASSIFICATION ( '', '', #161 ) ;
#248 = DIRECTION ( 'NONE',  ( -1.000000000000000000, -0.0000000000000000000, -0.0000000000000000000 ) ) ;
#249 = VECTOR ( 'NONE', #284, 1000.000000000000000 ) ;
#250 = APPROVAL_DATE_TIME ( #103, #252 ) ;
#251 = CARTESIAN_POINT ( 'NONE',  ( -1.300000000000000000, 3.367778697655220000E-016, 2.749999999999999100 ) ) ;
#252 = APPROVAL ( #209, 'UNSPECIFIED' ) ;
#253 = FACE_OUTER_BOUND ( 'NONE', #120, .T. ) ;
#254 = COORDINATED_UNIVERSAL_TIME_OFFSET ( 5, 0, .BEHIND. ) ;
#255 = LINE ( 'NONE', #56, #86 ) ;
#256 = ORIENTED_EDGE ( 'NONE', *, *, #16, .F. ) ;
#257 = PERSON_AND_ORGANIZATION ( #13, #75 ) ;
#258 = APPROVAL_PERSON_ORGANIZATION ( #257, #148, #42 ) ;
#259 = CC_DESIGN_DATE_AND_TIME_ASSIGNMENT ( #116, #271, ( #247 ) ) ;
#260 = PERSON_AND_ORGANIZATION_ROLE ( 'creator' ) ;
#261 = APPROVAL_DATE_TIME ( #293, #148 ) ;
#262 = VECTOR ( 'NONE', #5, 1000.000000000000100 ) ;
#263 = EDGE_CURVE ( 'NONE', #186, #267, #156, .T. ) ;
#264 = CC_DESIGN_SECURITY_CLASSIFICATION ( #247, ( #199 ) ) ;
#265 = CIRCLE ( 'NONE', #106, 2.999999999999999600 ) ;
#266 = CARTESIAN_POINT ( 'NONE',  ( 1.300000000000000000, 0.0000000000000000000, 0.0000000000000000000 ) ) ;
#267 = VERTEX_POINT ( 'NONE', #212 ) ;
#268 = PERSON_AND_ORGANIZATION ( #13, #75 ) ;
#269 = COORDINATED_UNIVERSAL_TIME_OFFSET ( 5, 0, .BEHIND. ) ;
#270 =( NAMED_UNIT ( * ) PLANE_ANGLE_UNIT ( ) SI_UNIT ( $, .RADIAN. ) );
#271 = DATE_TIME_ROLE ( 'classification_date' ) ;
#272 =( LENGTH_UNIT ( ) NAMED_UNIT ( * ) SI_UNIT ( .MILLI., .METRE. ) );
#273 = ORIENTED_EDGE ( 'NONE', *, *, #297, .T. ) ;
#274 = DIRECTION ( 'NONE',  ( 0.0000000000000000000, 0.0000000000000000000, 1.000000000000000000 ) ) ;
#275 = EDGE_CURVE ( 'NONE', #90, #151, #127, .T. ) ;
#276 = VERTEX_POINT ( 'NONE', #184 ) ;
#277 = DIRECTION ( 'NONE',  ( -1.000000000000000000, -0.0000000000000000000, -0.0000000000000000000 ) ) ;
#278 = DIRECTION ( 'NONE',  ( -0.9079953446207286200, 0.0000000000000000000, 0.4189802550802178600 ) ) ;
#279 = DIRECTION ( 'NONE',  ( -1.000000000000000000, -0.0000000000000000000, -0.0000000000000000000 ) ) ;
#280 = PERSON_AND_ORGANIZATION ( #13, #75 ) ;
#281 =( NAMED_UNIT ( * ) SI_UNIT ( $, .STERADIAN. ) SOLID_ANGLE_UNIT ( ) );
#282 = APPLICATION_PROTOCOL_DEFINITION ( 'international standard', 'config_control_design', 1994, #129 ) ;
#283 = AXIS2_PLACEMENT_3D ( 'NONE', #44, #15, #33 ) ;
#284 = DIRECTION ( 'NONE',  ( -1.000000000000000000, -0.0000000000000000000, -0.0000000000000000000 ) ) ;
#285 = APPROVAL_STATUS ( 'not_yet_approved' ) ;
#286 = FACE_OUTER_BOUND ( 'NONE', #159, .T. ) ;
#287 = LOCAL_TIME ( 10, 18, 37.00000000000000000, #241 ) ;
#288 = DIRECTION ( 'NONE',  ( 0.0000000000000000000, 0.0000000000000000000, -1.000000000000000000 ) ) ;
#289 = CARTESIAN_POINT ( 'NONE',  ( -1.300000000000000000, 0.0000000000000000000, 0.0000000000000000000 ) ) ;
#290 = ORIENTED_EDGE ( 'NONE', *, *, #99, .F. ) ;
#291 = EDGE_CURVE ( 'NONE', #98, #186, #179, .T. ) ;
#292 = MANIFOLD_SOLID_BREP ( '4268-001-1-solid1', #237 ) ;
#293 = DATE_AND_TIME ( #300, #295 ) ;
#294 = CALENDAR_DATE ( 2015, 29, 5 ) ;
#295 = LOCAL_TIME ( 10, 18, 37.00000000000000000, #254 ) ;
#296 = CARTESIAN_POINT ( 'NONE',  ( -1.300000000000000000, 3.673940397442059400E-016, -2.999999999999999600 ) ) ;
#297 = EDGE_CURVE ( 'NONE', #204, #276, #82, .T. ) ;
#298 = DIRECTION ( 'NONE',  ( 0.0000000000000000000, -1.224646799147353200E-016, 1.000000000000000000 ) ) ;
#299 = DIRECTION ( 'NONE',  ( 0.0000000000000000000, 0.0000000000000000000, -1.000000000000000000 ) ) ;
#300 = CALENDAR_DATE ( 2015, 29, 5 ) ;
#301 = COORDINATED_UNIVERSAL_TIME_OFFSET ( 5, 0, .BEHIND. ) ;
ENDSEC;
END-ISO-10303-21;
