ISO-10303-21;
HEADER;
FILE_DESCRIPTION (( 'STEP AP203' ),
    '1' );
FILE_NAME ('Web Model 68396.STEP',
    '2017-01-31T19:55:48',
    ( '' ),
    ( '' ),
    'SwSTEP 2.0',
    'SolidWorks 2016',
    '' );
FILE_SCHEMA (( 'CONFIG_CONTROL_DESIGN' ));
ENDSEC;

DATA;
#1 = PERSON_AND_ORGANIZATION ( #47, #145 ) ;
#2 = PERSON_AND_ORGANIZATION ( #47, #145 ) ;
#3 = AXIS2_PLACEMENT_3D ( 'NONE', #154, #11, #107 ) ;
#4 = LOCAL_TIME ( 14, 55, 48.00000000000000000, #229 ) ;
#5 = ORIENTED_EDGE ( 'NONE', *, *, #92, .T. ) ;
#6 = CALENDAR_DATE ( 2017, 31, 1 ) ;
#7 = AXIS2_PLACEMENT_3D ( 'NONE', #196, #83, #175 ) ;
#8 = FACE_OUTER_BOUND ( 'NONE', #166, .T. ) ;
#9 = PLANE ( 'NONE',  #236 ) ;
#10 = CARTESIAN_POINT ( 'NONE',  ( 37.50000000000000000, -24.99999999999999600, 0.0000000000000000000 ) ) ;
#11 = DIRECTION ( 'NONE',  ( -1.387778780781445400E-016, 1.000000000000000000, 0.0000000000000000000 ) ) ;
#12 = DIRECTION ( 'NONE',  ( 0.0000000000000000000, 0.0000000000000000000, 1.000000000000000000 ) ) ;
#13 = PRODUCT ( 'Web Model 68396', 'Web Model 68396', '', ( #219 ) ) ;
#14 = EDGE_LOOP ( 'NONE', ( #160, #211, #87, #156 ) ) ;
#15 = PRODUCT_DEFINITION_SHAPE ( 'NONE', 'NONE',  #112 ) ;
#16 = APPLICATION_CONTEXT ( 'configuration controlled 3d designs of mechanical parts and assemblies' ) ;
#17 = LINE ( 'NONE', #73, #184 ) ;
#18 = ORIENTED_EDGE ( 'NONE', *, *, #121, .T. ) ;
#19 = EDGE_CURVE ( 'NONE', #123, #172, #162, .T. ) ;
#20 = ORIENTED_EDGE ( 'NONE', *, *, #163, .T. ) ;
#21 = APPROVAL ( #204, 'UNSPECIFIED' ) ;
#22 = EDGE_LOOP ( 'NONE', ( #31, #115, #33, #95 ) ) ;
#23 = CARTESIAN_POINT ( 'NONE',  ( -37.50000000000000000, 24.99999999999999300, 3.000000000000000000 ) ) ;
#24 = EDGE_CURVE ( 'NONE', #123, #67, #53, .T. ) ;
#25 = VERTEX_POINT ( 'NONE', #227 ) ;
#26 = PLANE ( 'NONE',  #191 ) ;
#27 = CARTESIAN_POINT ( 'NONE',  ( 37.50000000000000000, 25.00000000000000000, 0.0000000000000000000 ) ) ;
#28 = PLANE ( 'NONE',  #7 ) ;
#29 = CALENDAR_DATE ( 2017, 31, 1 ) ;
#30 = CARTESIAN_POINT ( 'NONE',  ( 37.50000000000000000, -24.99999999999999600, 3.000000000000000000 ) ) ;
#31 = ORIENTED_EDGE ( 'NONE', *, *, #32, .F. ) ;
#32 = EDGE_CURVE ( 'NONE', #67, #235, #126, .T. ) ;
#33 = ORIENTED_EDGE ( 'NONE', *, *, #121, .F. ) ;
#34 = APPLICATION_PROTOCOL_DEFINITION ( 'international standard', 'config_control_design', 1994, #16 ) ;
#35 = FACE_OUTER_BOUND ( 'NONE', #22, .T. ) ;
#36 = EDGE_LOOP ( 'NONE', ( #230, #199, #187, #111 ) ) ;
#37 = LINE ( 'NONE', #30, #91 ) ;
#38 = AXIS2_PLACEMENT_3D ( 'NONE', #150, #43, #174 ) ;
#39 = CC_DESIGN_APPROVAL ( #181, ( #112 ) ) ;
#40 = CARTESIAN_POINT ( 'NONE',  ( -37.50000000000000000, 24.99999999999999300, 0.0000000000000000000 ) ) ;
#41 = CALENDAR_DATE ( 2017, 31, 1 ) ;
#42 = PERSON_AND_ORGANIZATION ( #47, #145 ) ;
#43 = DIRECTION ( 'NONE',  ( 0.0000000000000000000, 0.0000000000000000000, 1.000000000000000000 ) ) ;
#44 = APPROVAL_DATE_TIME ( #131, #181 ) ;
#45 =( NAMED_UNIT ( * ) PLANE_ANGLE_UNIT ( ) SI_UNIT ( $, .RADIAN. ) );
#46 = ORIENTED_EDGE ( 'NONE', *, *, #79, .T. ) ;
#47 = PERSON ( 'UNSPECIFIED', 'UNSPECIFIED', 'UNSPECIFIED', ('UNSPECIFIED'), ('UNSPECIFIED'), ('UNSPECIFIED') ) ;
#48 = ADVANCED_FACE ( 'NONE', ( #201 ), #26, .F. ) ;
#49 = PERSON_AND_ORGANIZATION ( #47, #145 ) ;
#50 = VECTOR ( 'NONE', #120, 1000.000000000000000 ) ;
#51 = LINE ( 'NONE', #55, #50 ) ;
#52 = VECTOR ( 'NONE', #54, 1000.000000000000000 ) ;
#53 = LINE ( 'NONE', #23, #76 ) ;
#54 = DIRECTION ( 'NONE',  ( 0.0000000000000000000, -1.000000000000000000, 0.0000000000000000000 ) ) ;
#55 = CARTESIAN_POINT ( 'NONE',  ( 37.50000000000000000, -24.99999999999999600, 3.000000000000000000 ) ) ;
#56 = APPROVAL_PERSON_ORGANIZATION ( #1, #21, #109 ) ;
#57 = LINE ( 'NONE', #167, #130 ) ;
#58 =( LENGTH_UNIT ( ) NAMED_UNIT ( * ) SI_UNIT ( .MILLI., .METRE. ) );
#59 = VECTOR ( 'NONE', #217, 1000.000000000000000 ) ;
#60 = VECTOR ( 'NONE', #77, 1000.000000000000000 ) ;
#61 = CARTESIAN_POINT ( 'NONE',  ( 37.50000000000000000, 25.00000000000000000, 3.000000000000000000 ) ) ;
#62 = SECURITY_CLASSIFICATION_LEVEL ( 'unclassified' ) ;
#63 = PERSON_AND_ORGANIZATION_ROLE ( 'design_supplier' ) ;
#64 = ORIENTED_EDGE ( 'NONE', *, *, #178, .F. ) ;
#65 = ADVANCED_FACE ( 'NONE', ( #220 ), #9, .F. ) ;
#66 = PERSON_AND_ORGANIZATION_ROLE ( 'design_owner' ) ;
#67 = VERTEX_POINT ( 'NONE', #40 ) ;
#68 = PRODUCT_DEFINITION_FORMATION_WITH_SPECIFIED_SOURCE ( 'ANY', '', #13, .NOT_KNOWN. ) ;
#69 = VECTOR ( 'NONE', #74, 1000.000000000000000 ) ;
#70 = ADVANCED_BREP_SHAPE_REPRESENTATION ( 'Web Model 68396', ( #161, #38 ), #194 ) ;
#71 = PERSON_AND_ORGANIZATION ( #47, #145 ) ;
#72 = EDGE_LOOP ( 'NONE', ( #46, #142, #149, #134 ) ) ;
#73 = CARTESIAN_POINT ( 'NONE',  ( 37.50000000000000000, 25.00000000000000000, 0.0000000000000000000 ) ) ;
#74 = DIRECTION ( 'NONE',  ( 0.0000000000000000000, -1.000000000000000000, 0.0000000000000000000 ) ) ;
#75 = COORDINATED_UNIVERSAL_TIME_OFFSET ( 5, 0, .BEHIND. ) ;
#76 = VECTOR ( 'NONE', #101, 1000.000000000000000 ) ;
#77 = DIRECTION ( 'NONE',  ( -1.000000000000000000, -9.251858538542971600E-017, 0.0000000000000000000 ) ) ;
#78 = CARTESIAN_POINT ( 'NONE',  ( -37.50000000000000000, 24.99999999999999300, 3.000000000000000000 ) ) ;
#79 = EDGE_CURVE ( 'NONE', #25, #67, #218, .T. ) ;
#80 = COORDINATED_UNIVERSAL_TIME_OFFSET ( 5, 0, .BEHIND. ) ;
#81 = SHAPE_DEFINITION_REPRESENTATION ( #15, #70 ) ;
#82 = APPLICATION_CONTEXT ( 'configuration controlled 3d designs of mechanical parts and assemblies' ) ;
#83 = DIRECTION ( 'NONE',  ( 0.0000000000000000000, 0.0000000000000000000, -1.000000000000000000 ) ) ;
#84 = SECURITY_CLASSIFICATION ( '', '', #62 ) ;
#85 = DIRECTION ( 'NONE',  ( -0.0000000000000000000, -0.0000000000000000000, -1.000000000000000000 ) ) ;
#86 = CARTESIAN_POINT ( 'NONE',  ( 37.50000000000000000, 25.00000000000000000, 3.000000000000000000 ) ) ;
#87 = ORIENTED_EDGE ( 'NONE', *, *, #19, .F. ) ;
#88 = EDGE_CURVE ( 'NONE', #172, #235, #57, .T. ) ;
#89 = PERSON_AND_ORGANIZATION_ROLE ( 'creator' ) ;
#90 = DATE_TIME_ROLE ( 'classification_date' ) ;
#91 = VECTOR ( 'NONE', #212, 1000.000000000000000 ) ;
#92 = EDGE_CURVE ( 'NONE', #176, #123, #118, .T. ) ;
#93 = LOCAL_TIME ( 14, 55, 48.00000000000000000, #186 ) ;
#94 = CC_DESIGN_PERSON_AND_ORGANIZATION_ASSIGNMENT ( #143, #66, ( #13 ) ) ;
#95 = ORIENTED_EDGE ( 'NONE', *, *, #116, .F. ) ;
#96 = LOCAL_TIME ( 14, 55, 48.00000000000000000, #80 ) ;
#97 = EDGE_CURVE ( 'NONE', #110, #224, #51, .T. ) ;
#98 = PERSON_AND_ORGANIZATION ( #47, #145 ) ;
#99 = CALENDAR_DATE ( 2017, 31, 1 ) ;
#100 = ORIENTED_EDGE ( 'NONE', *, *, #168, .T. ) ;
#101 = DIRECTION ( 'NONE',  ( -0.0000000000000000000, -0.0000000000000000000, -1.000000000000000000 ) ) ;
#102 = LOCAL_TIME ( 14, 55, 48.00000000000000000, #75 ) ;
#103 = DIRECTION ( 'NONE',  ( 1.000000000000000000, 9.251858538542970300E-017, 0.0000000000000000000 ) ) ;
#104 = PERSON_AND_ORGANIZATION ( #47, #145 ) ;
#105 = PLANE ( 'NONE',  #3 ) ;
#106 = CLOSED_SHELL ( 'NONE', ( #65, #223, #138, #237, #48, #221 ) ) ;
#107 = DIRECTION ( 'NONE',  ( -1.000000000000000000, -1.387778780781445400E-016, 0.0000000000000000000 ) ) ;
#108 = CC_DESIGN_DATE_AND_TIME_ASSIGNMENT ( #234, #157, ( #112 ) ) ;
#109 = APPROVAL_ROLE ( '' ) ;
#110 = VERTEX_POINT ( 'NONE', #119 ) ;
#111 = ORIENTED_EDGE ( 'NONE', *, *, #88, .T. ) ;
#112 = PRODUCT_DEFINITION ( 'UNKNOWN', '', #68, #113 ) ;
#113 = DESIGN_CONTEXT ( 'detailed design', #16, 'design' ) ;
#114 = AXIS2_PLACEMENT_3D ( 'NONE', #86, #195, #12 ) ;
#115 = ORIENTED_EDGE ( 'NONE', *, *, #79, .F. ) ;
#116 = EDGE_CURVE ( 'NONE', #235, #224, #132, .T. ) ;
#117 = DIRECTION ( 'NONE',  ( -0.0000000000000000000, 0.0000000000000000000, -1.000000000000000000 ) ) ;
#118 = LINE ( 'NONE', #169, #60 ) ;
#119 = CARTESIAN_POINT ( 'NONE',  ( 37.50000000000000000, -24.99999999999999600, 3.000000000000000000 ) ) ;
#120 = DIRECTION ( 'NONE',  ( -0.0000000000000000000, -0.0000000000000000000, -1.000000000000000000 ) ) ;
#121 = EDGE_CURVE ( 'NONE', #224, #25, #17, .T. ) ;
#122 = CARTESIAN_POINT ( 'NONE',  ( 37.50000000000000000, 25.00000000000000000, 3.000000000000000000 ) ) ;
#123 = VERTEX_POINT ( 'NONE', #78 ) ;
#124 = CARTESIAN_POINT ( 'NONE',  ( -37.50000000000000000, -25.00000000000000700, 3.000000000000000000 ) ) ;
#125 = PLANE ( 'NONE',  #222 ) ;
#126 = LINE ( 'NONE', #165, #69 ) ;
#127 = APPROVAL_ROLE ( '' ) ;
#128 = PERSON_AND_ORGANIZATION_ROLE ( 'creator' ) ;
#129 = CALENDAR_DATE ( 2017, 31, 1 ) ;
#130 = VECTOR ( 'NONE', #208, 1000.000000000000000 ) ;
#131 = DATE_AND_TIME ( #99, #4 ) ;
#132 = LINE ( 'NONE', #10, #152 ) ;
#133 = CARTESIAN_POINT ( 'NONE',  ( -37.50000000000000000, 24.99999999999999300, 3.000000000000000000 ) ) ;
#134 = ORIENTED_EDGE ( 'NONE', *, *, #178, .T. ) ;
#135 = CC_DESIGN_PERSON_AND_ORGANIZATION_ASSIGNMENT ( #2, #63, ( #68 ) ) ;
#136 = CARTESIAN_POINT ( 'NONE',  ( 37.50000000000000000, 25.00000000000000000, 3.000000000000000000 ) ) ;
#137 = ORIENTED_EDGE ( 'NONE', *, *, #97, .T. ) ;
#138 = ADVANCED_FACE ( 'NONE', ( #8 ), #170, .F. ) ;
#139 = APPROVAL_DATE_TIME ( #192, #226 ) ;
#140 = CC_DESIGN_DATE_AND_TIME_ASSIGNMENT ( #155, #90, ( #84 ) ) ;
#141 = LINE ( 'NONE', #61, #182 ) ;
#142 = ORIENTED_EDGE ( 'NONE', *, *, #24, .F. ) ;
#143 = PERSON_AND_ORGANIZATION ( #47, #145 ) ;
#144 = LOCAL_TIME ( 14, 55, 48.00000000000000000, #206 ) ;
#145 = ORGANIZATION ( 'UNSPECIFIED', 'UNSPECIFIED', '' ) ;
#146 = ORIENTED_EDGE ( 'NONE', *, *, #168, .F. ) ;
#147 = CC_DESIGN_PERSON_AND_ORGANIZATION_ASSIGNMENT ( #42, #89, ( #68 ) ) ;
#148 = DIRECTION ( 'NONE',  ( 1.000000000000000000, 0.0000000000000000000, -0.0000000000000000000 ) ) ;
#149 = ORIENTED_EDGE ( 'NONE', *, *, #92, .F. ) ;
#150 = CARTESIAN_POINT ( 'NONE',  ( 0.0000000000000000000, 0.0000000000000000000, 0.0000000000000000000 ) ) ;
#151 = DATE_AND_TIME ( #29, #144 ) ;
#152 = VECTOR ( 'NONE', #164, 1000.000000000000000 ) ;
#153 = EDGE_LOOP ( 'NONE', ( #183, #20, #100, #5 ) ) ;
#154 = CARTESIAN_POINT ( 'NONE',  ( 37.50000000000000000, -24.99999999999999600, 3.000000000000000000 ) ) ;
#155 = DATE_AND_TIME ( #41, #96 ) ;
#156 = ORIENTED_EDGE ( 'NONE', *, *, #24, .T. ) ;
#157 = DATE_TIME_ROLE ( 'creation_date' ) ;
#158 = CC_DESIGN_PERSON_AND_ORGANIZATION_ASSIGNMENT ( #49, #128, ( #112 ) ) ;
#159 = VECTOR ( 'NONE', #185, 1000.000000000000000 ) ;
#160 = ORIENTED_EDGE ( 'NONE', *, *, #32, .T. ) ;
#161 = MANIFOLD_SOLID_BREP ( 'Extrude1', #106 ) ;
#162 = LINE ( 'NONE', #133, #52 ) ;
#163 = EDGE_CURVE ( 'NONE', #172, #110, #37, .T. ) ;
#164 = DIRECTION ( 'NONE',  ( 1.000000000000000000, 1.387778780781445700E-016, -0.0000000000000000000 ) ) ;
#165 = CARTESIAN_POINT ( 'NONE',  ( -37.50000000000000000, 24.99999999999999300, 0.0000000000000000000 ) ) ;
#166 = EDGE_LOOP ( 'NONE', ( #18, #64, #146, #137 ) ) ;
#167 = CARTESIAN_POINT ( 'NONE',  ( -37.50000000000000000, -25.00000000000000700, 3.000000000000000000 ) ) ;
#168 = EDGE_CURVE ( 'NONE', #110, #176, #180, .T. ) ;
#169 = CARTESIAN_POINT ( 'NONE',  ( 37.50000000000000000, 25.00000000000000000, 3.000000000000000000 ) ) ;
#170 = PLANE ( 'NONE',  #114 ) ;
#171 = CARTESIAN_POINT ( 'NONE',  ( 37.50000000000000000, 25.00000000000000000, 3.000000000000000000 ) ) ;
#172 = VERTEX_POINT ( 'NONE', #124 ) ;
#173 = CARTESIAN_POINT ( 'NONE',  ( -37.50000000000000000, -25.00000000000000700, 0.0000000000000000000 ) ) ;
#174 = DIRECTION ( 'NONE',  ( 1.000000000000000000, 0.0000000000000000000, 0.0000000000000000000 ) ) ;
#175 = DIRECTION ( 'NONE',  ( -1.000000000000000000, 0.0000000000000000000, -0.0000000000000000000 ) ) ;
#176 = VERTEX_POINT ( 'NONE', #136 ) ;
#177 = PERSON_AND_ORGANIZATION_ROLE ( 'classification_officer' ) ;
#178 = EDGE_CURVE ( 'NONE', #176, #25, #141, .T. ) ;
#179 = APPROVAL_ROLE ( '' ) ;
#180 = LINE ( 'NONE', #122, #59 ) ;
#181 = APPROVAL ( #203, 'UNSPECIFIED' ) ;
#182 = VECTOR ( 'NONE', #85, 1000.000000000000000 ) ;
#183 = ORIENTED_EDGE ( 'NONE', *, *, #19, .T. ) ;
#184 = VECTOR ( 'NONE', #193, 1000.000000000000000 ) ;
#185 = DIRECTION ( 'NONE',  ( -1.000000000000000000, -9.251858538542971600E-017, 0.0000000000000000000 ) ) ;
#186 = COORDINATED_UNIVERSAL_TIME_OFFSET ( 5, 0, .BEHIND. ) ;
#187 = ORIENTED_EDGE ( 'NONE', *, *, #163, .F. ) ;
#188 = UNCERTAINTY_MEASURE_WITH_UNIT (LENGTH_MEASURE( 1.000000000000000100E-005 ), #58, 'distance_accuracy_value', 'NONE');
#189 = CARTESIAN_POINT ( 'NONE',  ( -37.50000000000000000, -25.00000000000000700, 3.000000000000000000 ) ) ;
#190 = CC_DESIGN_APPROVAL ( #21, ( #84 ) ) ;
#191 = AXIS2_PLACEMENT_3D ( 'NONE', #189, #209, #228 ) ;
#192 = DATE_AND_TIME ( #6, #102 ) ;
#193 = DIRECTION ( 'NONE',  ( -0.0000000000000000000, 1.000000000000000000, -0.0000000000000000000 ) ) ;
#194 =( GEOMETRIC_REPRESENTATION_CONTEXT ( 3 ) GLOBAL_UNCERTAINTY_ASSIGNED_CONTEXT ( ( #188 ) ) GLOBAL_UNIT_ASSIGNED_CONTEXT ( ( #58, #45, #233 ) ) REPRESENTATION_CONTEXT ( 'NONE', 'WORKASPACE' ) );
#195 = DIRECTION ( 'NONE',  ( -1.000000000000000000, 0.0000000000000000000, 0.0000000000000000000 ) ) ;
#196 = CARTESIAN_POINT ( 'NONE',  ( -37.50000000000000000, -25.00000000000000700, 0.0000000000000000000 ) ) ;
#197 = CARTESIAN_POINT ( 'NONE',  ( 37.50000000000000000, -24.99999999999999600, 0.0000000000000000000 ) ) ;
#198 = APPROVAL_PERSON_ORGANIZATION ( #104, #181, #127 ) ;
#199 = ORIENTED_EDGE ( 'NONE', *, *, #97, .F. ) ;
#200 = APPROVAL_STATUS ( 'not_yet_approved' ) ;
#201 = FACE_OUTER_BOUND ( 'NONE', #153, .T. ) ;
#202 = PRODUCT_RELATED_PRODUCT_CATEGORY ( 'detail', '', ( #13 ) ) ;
#203 = APPROVAL_STATUS ( 'not_yet_approved' ) ;
#204 = APPROVAL_STATUS ( 'not_yet_approved' ) ;
#205 = CC_DESIGN_PERSON_AND_ORGANIZATION_ASSIGNMENT ( #71, #177, ( #84 ) ) ;
#206 = COORDINATED_UNIVERSAL_TIME_OFFSET ( 5, 0, .BEHIND. ) ;
#207 = CC_DESIGN_SECURITY_CLASSIFICATION ( #84, ( #68 ) ) ;
#208 = DIRECTION ( 'NONE',  ( -0.0000000000000000000, -0.0000000000000000000, -1.000000000000000000 ) ) ;
#209 = DIRECTION ( 'NONE',  ( 0.0000000000000000000, 0.0000000000000000000, -1.000000000000000000 ) ) ;
#210 = CARTESIAN_POINT ( 'NONE',  ( -37.50000000000000000, 24.99999999999999300, 3.000000000000000000 ) ) ;
#211 = ORIENTED_EDGE ( 'NONE', *, *, #88, .F. ) ;
#212 = DIRECTION ( 'NONE',  ( 1.000000000000000000, 1.387778780781445700E-016, -0.0000000000000000000 ) ) ;
#213 = APPLICATION_PROTOCOL_DEFINITION ( 'international standard', 'config_control_design', 1994, #82 ) ;
#214 = CC_DESIGN_APPROVAL ( #226, ( #68 ) ) ;
#215 = APPROVAL_DATE_TIME ( #151, #21 ) ;
#216 = FACE_OUTER_BOUND ( 'NONE', #72, .T. ) ;
#217 = DIRECTION ( 'NONE',  ( -0.0000000000000000000, 1.000000000000000000, -0.0000000000000000000 ) ) ;
#218 = LINE ( 'NONE', #27, #159 ) ;
#219 = MECHANICAL_CONTEXT ( 'NONE', #82, 'mechanical' ) ;
#220 = FACE_OUTER_BOUND ( 'NONE', #14, .T. ) ;
#221 = ADVANCED_FACE ( 'NONE', ( #35 ), #28, .T. ) ;
#222 = AXIS2_PLACEMENT_3D ( 'NONE', #171, #231, #103 ) ;
#223 = ADVANCED_FACE ( 'NONE', ( #232 ), #105, .F. ) ;
#224 = VERTEX_POINT ( 'NONE', #197 ) ;
#225 = APPROVAL_PERSON_ORGANIZATION ( #98, #226, #179 ) ;
#226 = APPROVAL ( #200, 'UNSPECIFIED' ) ;
#227 = CARTESIAN_POINT ( 'NONE',  ( 37.50000000000000000, 25.00000000000000000, 0.0000000000000000000 ) ) ;
#228 = DIRECTION ( 'NONE',  ( -1.000000000000000000, 0.0000000000000000000, -0.0000000000000000000 ) ) ;
#229 = COORDINATED_UNIVERSAL_TIME_OFFSET ( 5, 0, .BEHIND. ) ;
#230 = ORIENTED_EDGE ( 'NONE', *, *, #116, .T. ) ;
#231 = DIRECTION ( 'NONE',  ( 9.251858538542970300E-017, -1.000000000000000000, 0.0000000000000000000 ) ) ;
#232 = FACE_OUTER_BOUND ( 'NONE', #36, .T. ) ;
#233 =( NAMED_UNIT ( * ) SI_UNIT ( $, .STERADIAN. ) SOLID_ANGLE_UNIT ( ) );
#234 = DATE_AND_TIME ( #129, #93 ) ;
#235 = VERTEX_POINT ( 'NONE', #173 ) ;
#236 = AXIS2_PLACEMENT_3D ( 'NONE', #210, #148, #117 ) ;
#237 = ADVANCED_FACE ( 'NONE', ( #216 ), #125, .F. ) ;
ENDSEC;
END-ISO-10303-21;
