ISO-10303-21;
HEADER;
FILE_DESCRIPTION (( 'STEP AP203' ),
    '1' );
FILE_NAME ('Web Model 46459_47605.step',
    '2018-03-15T18:33:14',
    ( '' ),
    ( '' ),
    'SwSTEP 2.0',
    'SolidWorks 2016',
    '' );
FILE_SCHEMA (( 'CONFIG_CONTROL_DESIGN' ));
ENDSEC;

DATA;
#1 = CC_DESIGN_APPROVAL ( #158, ( #176 ) ) ;
#2 = LINE ( 'NONE', #137, #185 ) ;
#3 = VERTEX_POINT ( 'NONE', #28 ) ;
#4 = CC_DESIGN_APPROVAL ( #32, ( #67 ) ) ;
#5 = VECTOR ( 'NONE', #173, 1000.000000000000000 ) ;
#6 = ADVANCED_FACE ( 'NONE', ( #161 ), #169, .F. ) ;
#7 = DIRECTION ( 'NONE',  ( -1.000000000000000000, -0.0000000000000000000, -0.0000000000000000000 ) ) ;
#8 = ORIENTED_EDGE ( 'NONE', *, *, #152, .F. ) ;
#9 = DIRECTION ( 'NONE',  ( -1.000000000000000000, -0.0000000000000000000, -0.0000000000000000000 ) ) ;
#10 = APPROVAL_DATE_TIME ( #153, #32 ) ;
#11 = DIRECTION ( 'NONE',  ( 0.0000000000000000000, -0.0000000000000000000, 1.000000000000000000 ) ) ;
#12 = VECTOR ( 'NONE', #187, 1000.000000000000000 ) ;
#13 = APPROVAL ( #183, 'UNSPECIFIED' ) ;
#14 = APPLICATION_CONTEXT ( 'configuration controlled 3d designs of mechanical parts and assemblies' ) ;
#15 = LOCAL_TIME ( 14, 33, 14.00000000000000000, #206 ) ;
#16 = PLANE ( 'NONE',  #219 ) ;
#17 = DIRECTION ( 'NONE',  ( 0.0000000000000000000, -0.0000000000000000000, -1.000000000000000000 ) ) ;
#18 = UNCERTAINTY_MEASURE_WITH_UNIT (LENGTH_MEASURE( 1.000000000000000100E-005 ), #141, 'distance_accuracy_value', 'NONE');
#19 = CC_DESIGN_DATE_AND_TIME_ASSIGNMENT ( #128, #235, ( #176 ) ) ;
#20 = PERSON_AND_ORGANIZATION ( #64, #84 ) ;
#21 = EDGE_CURVE ( 'NONE', #204, #213, #77, .T. ) ;
#22 = ORIENTED_EDGE ( 'NONE', *, *, #85, .T. ) ;
#23 = APPLICATION_CONTEXT ( 'configuration controlled 3d designs of mechanical parts and assemblies' ) ;
#24 = PERSON_AND_ORGANIZATION ( #64, #84 ) ;
#25 = MECHANICAL_CONTEXT ( 'NONE', #14, 'mechanical' ) ;
#26 = CC_DESIGN_APPROVAL ( #13, ( #105 ) ) ;
#27 = EDGE_LOOP ( 'NONE', ( #144, #192, #148, #165 ) ) ;
#28 = CARTESIAN_POINT ( 'NONE',  ( -0.7500000000000000000, 12.69999999999999800, 12.69999999999999900 ) ) ;
#29 = LINE ( 'NONE', #195, #114 ) ;
#30 = EDGE_CURVE ( 'NONE', #121, #98, #110, .T. ) ;
#31 = DIRECTION ( 'NONE',  ( -0.0000000000000000000, -0.0000000000000000000, 1.000000000000000000 ) ) ;
#32 = APPROVAL ( #111, 'UNSPECIFIED' ) ;
#33 = EDGE_LOOP ( 'NONE', ( #22, #93, #42, #47 ) ) ;
#34 = DIRECTION ( 'NONE',  ( -1.000000000000000000, -0.0000000000000000000, -0.0000000000000000000 ) ) ;
#35 = CALENDAR_DATE ( 2018, 15, 3 ) ;
#36 = VECTOR ( 'NONE', #167, 1000.000000000000000 ) ;
#37 = ADVANCED_FACE ( 'NONE', ( #62 ), #190, .F. ) ;
#38 = CC_DESIGN_SECURITY_CLASSIFICATION ( #105, ( #67 ) ) ;
#39 = CALENDAR_DATE ( 2018, 15, 3 ) ;
#40 = VECTOR ( 'NONE', #31, 1000.000000000000000 ) ;
#41 = COORDINATED_UNIVERSAL_TIME_OFFSET ( 5, 0, .BEHIND. ) ;
#42 = ORIENTED_EDGE ( 'NONE', *, *, #113, .F. ) ;
#43 = EDGE_CURVE ( 'NONE', #121, #213, #2, .T. ) ;
#44 = CARTESIAN_POINT ( 'NONE',  ( 0.7500000000000000000, -12.70000000000000100, 12.70000000000000500 ) ) ;
#45 = APPROVAL_PERSON_ORGANIZATION ( #24, #158, #96 ) ;
#46 = CARTESIAN_POINT ( 'NONE',  ( -0.7500000000000000000, 12.69999999999999800, -12.69999999999999900 ) ) ;
#47 = ORIENTED_EDGE ( 'NONE', *, *, #100, .T. ) ;
#48 = DIRECTION ( 'NONE',  ( -0.0000000000000000000, 1.000000000000000000, 2.048885995248197400E-016 ) ) ;
#49 = DIRECTION ( 'NONE',  ( 0.0000000000000000000, -1.000000000000000000, 2.048885995248197400E-016 ) ) ;
#50 = PRODUCT_RELATED_PRODUCT_CATEGORY ( 'detail', '', ( #82 ) ) ;
#51 = DIRECTION ( 'NONE',  ( 0.0000000000000000000, -2.048885995248197400E-016, 1.000000000000000000 ) ) ;
#52 = ORIENTED_EDGE ( 'NONE', *, *, #113, .T. ) ;
#53 = CARTESIAN_POINT ( 'NONE',  ( -0.7500000000000000000, -12.70000000000000100, 12.70000000000000500 ) ) ;
#54 = DIRECTION ( 'NONE',  ( 1.000000000000000000, 0.0000000000000000000, 0.0000000000000000000 ) ) ;
#55 = VERTEX_POINT ( 'NONE', #116 ) ;
#56 =( NAMED_UNIT ( * ) SI_UNIT ( $, .STERADIAN. ) SOLID_ANGLE_UNIT ( ) );
#57 = ORIENTED_EDGE ( 'NONE', *, *, #94, .T. ) ;
#58 = CC_DESIGN_PERSON_AND_ORGANIZATION_ASSIGNMENT ( #20, #180, ( #67 ) ) ;
#59 = PRODUCT_DEFINITION_SHAPE ( 'NONE', 'NONE',  #176 ) ;
#60 = DATE_TIME_ROLE ( 'classification_date' ) ;
#61 = PERSON_AND_ORGANIZATION ( #64, #84 ) ;
#62 = FACE_OUTER_BOUND ( 'NONE', #27, .T. ) ;
#63 = VERTEX_POINT ( 'NONE', #191 ) ;
#64 = PERSON ( 'UNSPECIFIED', 'UNSPECIFIED', 'UNSPECIFIED', ('UNSPECIFIED'), ('UNSPECIFIED'), ('UNSPECIFIED') ) ;
#65 = APPROVAL_PERSON_ORGANIZATION ( #92, #32, #132 ) ;
#66 = DIRECTION ( 'NONE',  ( 0.0000000000000000000, -2.048885995248197400E-016, -1.000000000000000000 ) ) ;
#67 = PRODUCT_DEFINITION_FORMATION_WITH_SPECIFIED_SOURCE ( 'ANY', '', #82, .NOT_KNOWN. ) ;
#68 = LOCAL_TIME ( 14, 33, 14.00000000000000000, #182 ) ;
#69 = DIRECTION ( 'NONE',  ( -0.0000000000000000000, 1.000000000000000000, 0.0000000000000000000 ) ) ;
#70 = PLANE ( 'NONE',  #129 ) ;
#71 = EDGE_CURVE ( 'NONE', #213, #55, #146, .T. ) ;
#72 = LINE ( 'NONE', #124, #217 ) ;
#73 = CARTESIAN_POINT ( 'NONE',  ( -0.7500000000000000000, -12.70000000000000100, -12.70000000000000500 ) ) ;
#74 = CARTESIAN_POINT ( 'NONE',  ( 0.7500000000000000000, 12.69999999999999800, -12.69999999999999900 ) ) ;
#75 = DIRECTION ( 'NONE',  ( 0.0000000000000000000, 0.0000000000000000000, -1.000000000000000000 ) ) ;
#76 = MANIFOLD_SOLID_BREP ( 'Boss-Extrude1', #117 ) ;
#77 = LINE ( 'NONE', #118, #36 ) ;
#78 = DATE_AND_TIME ( #39, #174 ) ;
#79 = PERSON_AND_ORGANIZATION ( #64, #84 ) ;
#80 = CC_DESIGN_PERSON_AND_ORGANIZATION_ASSIGNMENT ( #61, #205, ( #67 ) ) ;
#81 = APPROVAL_ROLE ( '' ) ;
#82 = PRODUCT ( 'Web Model 46459_47605', 'Web Model 46459_47605', '', ( #25 ) ) ;
#83 = COORDINATED_UNIVERSAL_TIME_OFFSET ( 5, 0, .BEHIND. ) ;
#84 = ORGANIZATION ( 'UNSPECIFIED', 'UNSPECIFIED', '' ) ;
#85 = EDGE_CURVE ( 'NONE', #55, #3, #95, .T. ) ;
#86 = FACE_OUTER_BOUND ( 'NONE', #199, .T. ) ;
#87 = CARTESIAN_POINT ( 'NONE',  ( -0.7500000000000000000, 12.69999999999999800, 12.69999999999999900 ) ) ;
#88 = EDGE_CURVE ( 'NONE', #200, #3, #156, .T. ) ;
#89 = DIRECTION ( 'NONE',  ( 0.0000000000000000000, -1.000000000000000000, 0.0000000000000000000 ) ) ;
#90 = CARTESIAN_POINT ( 'NONE',  ( 0.7500000000000000000, -12.70000000000000100, 12.70000000000000500 ) ) ;
#91 = DIRECTION ( 'NONE',  ( 1.000000000000000000, 0.0000000000000000000, 0.0000000000000000000 ) ) ;
#92 = PERSON_AND_ORGANIZATION ( #64, #84 ) ;
#93 = ORIENTED_EDGE ( 'NONE', *, *, #88, .F. ) ;
#94 = EDGE_CURVE ( 'NONE', #200, #63, #157, .T. ) ;
#95 = LINE ( 'NONE', #87, #40 ) ;
#96 = APPROVAL_ROLE ( '' ) ;
#97 = SHAPE_DEFINITION_REPRESENTATION ( #59, #234 ) ;
#98 = VERTEX_POINT ( 'NONE', #226 ) ;
#99 = APPLICATION_PROTOCOL_DEFINITION ( 'international standard', 'config_control_design', 1994, #23 ) ;
#100 = EDGE_CURVE ( 'NONE', #98, #55, #72, .T. ) ;
#101 = ORIENTED_EDGE ( 'NONE', *, *, #30, .T. ) ;
#102 = CARTESIAN_POINT ( 'NONE',  ( 0.7500000000000000000, 12.69999999999999800, 12.69999999999999900 ) ) ;
#103 = VECTOR ( 'NONE', #48, 1000.000000000000000 ) ;
#104 = CARTESIAN_POINT ( 'NONE',  ( 0.7500000000000000000, 12.69999999999999800, 12.69999999999999900 ) ) ;
#105 = SECURITY_CLASSIFICATION ( '', '', #149 ) ;
#106 = DIRECTION ( 'NONE',  ( 0.0000000000000000000, 0.0000000000000000000, -1.000000000000000000 ) ) ;
#107 = AXIS2_PLACEMENT_3D ( 'NONE', #74, #51, #138 ) ;
#108 = CARTESIAN_POINT ( 'NONE',  ( 0.0000000000000000000, 0.0000000000000000000, 0.0000000000000000000 ) ) ;
#109 = VECTOR ( 'NONE', #7, 1000.000000000000000 ) ;
#110 = LINE ( 'NONE', #136, #103 ) ;
#111 = APPROVAL_STATUS ( 'not_yet_approved' ) ;
#112 = DATE_AND_TIME ( #211, #15 ) ;
#113 = EDGE_CURVE ( 'NONE', #98, #200, #164, .T. ) ;
#114 = VECTOR ( 'NONE', #209, 1000.000000000000000 ) ;
#115 = AXIS2_PLACEMENT_3D ( 'NONE', #44, #69, #11 ) ;
#116 = CARTESIAN_POINT ( 'NONE',  ( -0.7500000000000000000, 12.69999999999999800, -12.69999999999999900 ) ) ;
#117 = CLOSED_SHELL ( 'NONE', ( #6, #37, #126, #143, #181, #131 ) ) ;
#118 = CARTESIAN_POINT ( 'NONE',  ( -0.7500000000000000000, -12.70000000000000100, 12.70000000000000500 ) ) ;
#119 = ORIENTED_EDGE ( 'NONE', *, *, #184, .T. ) ;
#120 = CARTESIAN_POINT ( 'NONE',  ( -0.7500000000000000000, 12.69999999999999800, 12.69999999999999900 ) ) ;
#121 = VERTEX_POINT ( 'NONE', #214 ) ;
#122 = ORIENTED_EDGE ( 'NONE', *, *, #21, .F. ) ;
#123 = DIRECTION ( 'NONE',  ( 0.0000000000000000000, -1.000000000000000000, 2.048885995248197400E-016 ) ) ;
#124 = CARTESIAN_POINT ( 'NONE',  ( 0.7500000000000000000, 12.69999999999999800, -12.69999999999999900 ) ) ;
#125 = LINE ( 'NONE', #120, #197 ) ;
#126 = ADVANCED_FACE ( 'NONE', ( #223 ), #227, .F. ) ;
#127 = LOCAL_TIME ( 14, 33, 14.00000000000000000, #196 ) ;
#128 = DATE_AND_TIME ( #135, #68 ) ;
#129 = AXIS2_PLACEMENT_3D ( 'NONE', #229, #89, #17 ) ;
#130 = LOCAL_TIME ( 14, 33, 14.00000000000000000, #41 ) ;
#131 = ADVANCED_FACE ( 'NONE', ( #168 ), #16, .F. ) ;
#132 = APPROVAL_ROLE ( '' ) ;
#133 = AXIS2_PLACEMENT_3D ( 'NONE', #108, #140, #215 ) ;
#134 = CARTESIAN_POINT ( 'NONE',  ( 0.7500000000000000000, 12.69999999999999800, 12.69999999999999900 ) ) ;
#135 = CALENDAR_DATE ( 2018, 15, 3 ) ;
#136 = CARTESIAN_POINT ( 'NONE',  ( 0.7500000000000000000, 12.69999999999999800, -12.69999999999999900 ) ) ;
#137 = CARTESIAN_POINT ( 'NONE',  ( 0.7500000000000000000, -12.70000000000000100, -12.70000000000000500 ) ) ;
#138 = DIRECTION ( 'NONE',  ( 0.0000000000000000000, -1.000000000000000000, -2.048885995248197400E-016 ) ) ;
#139 = AXIS2_PLACEMENT_3D ( 'NONE', #102, #66, #222 ) ;
#140 = DIRECTION ( 'NONE',  ( 0.0000000000000000000, 0.0000000000000000000, 1.000000000000000000 ) ) ;
#141 =( LENGTH_UNIT ( ) NAMED_UNIT ( * ) SI_UNIT ( .MILLI., .METRE. ) );
#142 = ORIENTED_EDGE ( 'NONE', *, *, #43, .T. ) ;
#143 = ADVANCED_FACE ( 'NONE', ( #220 ), #70, .F. ) ;
#144 = ORIENTED_EDGE ( 'NONE', *, *, #21, .T. ) ;
#145 = PERSON_AND_ORGANIZATION_ROLE ( 'design_owner' ) ;
#146 = LINE ( 'NONE', #46, #12 ) ;
#147 = EDGE_LOOP ( 'NONE', ( #177, #218, #186, #142 ) ) ;
#148 = ORIENTED_EDGE ( 'NONE', *, *, #189, .F. ) ;
#149 = SECURITY_CLASSIFICATION_LEVEL ( 'unclassified' ) ;
#150 = EDGE_LOOP ( 'NONE', ( #119, #8, #224, #231 ) ) ;
#151 = DATE_AND_TIME ( #163, #127 ) ;
#152 = EDGE_CURVE ( 'NONE', #63, #204, #29, .T. ) ;
#153 = DATE_AND_TIME ( #35, #130 ) ;
#154 = PERSON_AND_ORGANIZATION ( #64, #84 ) ;
#155 = CARTESIAN_POINT ( 'NONE',  ( 0.7500000000000000000, 12.69999999999999800, 12.69999999999999900 ) ) ;
#156 = LINE ( 'NONE', #104, #109 ) ;
#157 = LINE ( 'NONE', #134, #202 ) ;
#158 = APPROVAL ( #159, 'UNSPECIFIED' ) ;
#159 = APPROVAL_STATUS ( 'not_yet_approved' ) ;
#160 = PERSON_AND_ORGANIZATION_ROLE ( 'classification_officer' ) ;
#161 = FACE_OUTER_BOUND ( 'NONE', #150, .T. ) ;
#162 =( GEOMETRIC_REPRESENTATION_CONTEXT ( 3 ) GLOBAL_UNCERTAINTY_ASSIGNED_CONTEXT ( ( #18 ) ) GLOBAL_UNIT_ASSIGNED_CONTEXT ( ( #141, #212, #56 ) ) REPRESENTATION_CONTEXT ( 'NONE', 'WORKASPACE' ) );
#163 = CALENDAR_DATE ( 2018, 15, 3 ) ;
#164 = LINE ( 'NONE', #155, #5 ) ;
#165 = ORIENTED_EDGE ( 'NONE', *, *, #152, .T. ) ;
#166 = ORIENTED_EDGE ( 'NONE', *, *, #71, .F. ) ;
#167 = DIRECTION ( 'NONE',  ( 0.0000000000000000000, 0.0000000000000000000, -1.000000000000000000 ) ) ;
#168 = FACE_OUTER_BOUND ( 'NONE', #233, .T. ) ;
#169 = PLANE ( 'NONE',  #139 ) ;
#170 = DESIGN_CONTEXT ( 'detailed design', #23, 'design' ) ;
#171 = APPROVAL_PERSON_ORGANIZATION ( #236, #13, #81 ) ;
#172 = PERSON_AND_ORGANIZATION ( #64, #84 ) ;
#173 = DIRECTION ( 'NONE',  ( -0.0000000000000000000, -0.0000000000000000000, 1.000000000000000000 ) ) ;
#174 = LOCAL_TIME ( 14, 33, 14.00000000000000000, #83 ) ;
#175 = AXIS2_PLACEMENT_3D ( 'NONE', #198, #54, #228 ) ;
#176 = PRODUCT_DEFINITION ( 'UNKNOWN', '', #67, #170 ) ;
#177 = ORIENTED_EDGE ( 'NONE', *, *, #71, .T. ) ;
#178 = APPLICATION_PROTOCOL_DEFINITION ( 'international standard', 'config_control_design', 1994, #14 ) ;
#179 = PERSON_AND_ORGANIZATION_ROLE ( 'creator' ) ;
#180 = PERSON_AND_ORGANIZATION_ROLE ( 'creator' ) ;
#181 = ADVANCED_FACE ( 'NONE', ( #86 ), #194, .T. ) ;
#182 = COORDINATED_UNIVERSAL_TIME_OFFSET ( 5, 0, .BEHIND. ) ;
#183 = APPROVAL_STATUS ( 'not_yet_approved' ) ;
#184 = EDGE_CURVE ( 'NONE', #3, #204, #125, .T. ) ;
#185 = VECTOR ( 'NONE', #9, 1000.000000000000000 ) ;
#186 = ORIENTED_EDGE ( 'NONE', *, *, #30, .F. ) ;
#187 = DIRECTION ( 'NONE',  ( -0.0000000000000000000, 1.000000000000000000, 2.048885995248197400E-016 ) ) ;
#188 = ORIENTED_EDGE ( 'NONE', *, *, #85, .F. ) ;
#189 = EDGE_CURVE ( 'NONE', #63, #121, #207, .T. ) ;
#190 = PLANE ( 'NONE',  #115 ) ;
#191 = CARTESIAN_POINT ( 'NONE',  ( 0.7500000000000000000, -12.70000000000000100, 12.70000000000000500 ) ) ;
#192 = ORIENTED_EDGE ( 'NONE', *, *, #43, .F. ) ;
#193 = CC_DESIGN_PERSON_AND_ORGANIZATION_ASSIGNMENT ( #154, #179, ( #176 ) ) ;
#194 = PLANE ( 'NONE',  #175 ) ;
#195 = CARTESIAN_POINT ( 'NONE',  ( 0.7500000000000000000, -12.70000000000000100, 12.70000000000000500 ) ) ;
#196 = COORDINATED_UNIVERSAL_TIME_OFFSET ( 5, 0, .BEHIND. ) ;
#197 = VECTOR ( 'NONE', #123, 1000.000000000000000 ) ;
#198 = CARTESIAN_POINT ( 'NONE',  ( 0.7500000000000000000, 0.0000000000000000000, 0.0000000000000000000 ) ) ;
#199 = EDGE_LOOP ( 'NONE', ( #57, #208, #101, #52 ) ) ;
#200 = VERTEX_POINT ( 'NONE', #210 ) ;
#201 = CC_DESIGN_PERSON_AND_ORGANIZATION_ASSIGNMENT ( #172, #160, ( #105 ) ) ;
#202 = VECTOR ( 'NONE', #49, 1000.000000000000000 ) ;
#203 = CC_DESIGN_PERSON_AND_ORGANIZATION_ASSIGNMENT ( #79, #145, ( #82 ) ) ;
#204 = VERTEX_POINT ( 'NONE', #53 ) ;
#205 = PERSON_AND_ORGANIZATION_ROLE ( 'design_supplier' ) ;
#206 = COORDINATED_UNIVERSAL_TIME_OFFSET ( 5, 0, .BEHIND. ) ;
#207 = LINE ( 'NONE', #90, #237 ) ;
#208 = ORIENTED_EDGE ( 'NONE', *, *, #189, .T. ) ;
#209 = DIRECTION ( 'NONE',  ( -1.000000000000000000, -0.0000000000000000000, -0.0000000000000000000 ) ) ;
#210 = CARTESIAN_POINT ( 'NONE',  ( 0.7500000000000000000, 12.69999999999999800, 12.69999999999999900 ) ) ;
#211 = CALENDAR_DATE ( 2018, 15, 3 ) ;
#212 =( NAMED_UNIT ( * ) PLANE_ANGLE_UNIT ( ) SI_UNIT ( $, .RADIAN. ) );
#213 = VERTEX_POINT ( 'NONE', #73 ) ;
#214 = CARTESIAN_POINT ( 'NONE',  ( 0.7500000000000000000, -12.70000000000000100, -12.70000000000000500 ) ) ;
#215 = DIRECTION ( 'NONE',  ( 1.000000000000000000, 0.0000000000000000000, 0.0000000000000000000 ) ) ;
#216 = APPROVAL_DATE_TIME ( #151, #13 ) ;
#217 = VECTOR ( 'NONE', #34, 1000.000000000000000 ) ;
#218 = ORIENTED_EDGE ( 'NONE', *, *, #100, .F. ) ;
#219 = AXIS2_PLACEMENT_3D ( 'NONE', #225, #91, #106 ) ;
#220 = FACE_OUTER_BOUND ( 'NONE', #33, .T. ) ;
#221 = ORIENTED_EDGE ( 'NONE', *, *, #184, .F. ) ;
#222 = DIRECTION ( 'NONE',  ( 0.0000000000000000000, 1.000000000000000000, -2.048885995248197400E-016 ) ) ;
#223 = FACE_OUTER_BOUND ( 'NONE', #147, .T. ) ;
#224 = ORIENTED_EDGE ( 'NONE', *, *, #94, .F. ) ;
#225 = CARTESIAN_POINT ( 'NONE',  ( -0.7500000000000000000, 0.0000000000000000000, 0.0000000000000000000 ) ) ;
#226 = CARTESIAN_POINT ( 'NONE',  ( 0.7500000000000000000, 12.69999999999999800, -12.69999999999999900 ) ) ;
#227 = PLANE ( 'NONE',  #107 ) ;
#228 = DIRECTION ( 'NONE',  ( 0.0000000000000000000, 0.0000000000000000000, -1.000000000000000000 ) ) ;
#229 = CARTESIAN_POINT ( 'NONE',  ( 0.7500000000000000000, 12.69999999999999800, 12.69999999999999900 ) ) ;
#230 = APPROVAL_DATE_TIME ( #112, #158 ) ;
#231 = ORIENTED_EDGE ( 'NONE', *, *, #88, .T. ) ;
#232 = CC_DESIGN_DATE_AND_TIME_ASSIGNMENT ( #78, #60, ( #105 ) ) ;
#233 = EDGE_LOOP ( 'NONE', ( #221, #188, #166, #122 ) ) ;
#234 = ADVANCED_BREP_SHAPE_REPRESENTATION ( 'Web Model 46459_47605', ( #76, #133 ), #162 ) ;
#235 = DATE_TIME_ROLE ( 'creation_date' ) ;
#236 = PERSON_AND_ORGANIZATION ( #64, #84 ) ;
#237 = VECTOR ( 'NONE', #75, 1000.000000000000000 ) ;
ENDSEC;
END-ISO-10303-21;
