ISO-10303-21;
HEADER;
FILE_DESCRIPTION (( 'STEP AP203' ),
    '1' );
FILE_NAME ('Web Model 19730_19734.step',
    '2022-03-22T14:58:04',
    ( '' ),
    ( '' ),
    'SwSTEP 2.0',
    'SolidWorks 2021',
    '' );
FILE_SCHEMA (( 'CONFIG_CONTROL_DESIGN' ));
ENDSEC;

DATA;
#1 = DIRECTION ( 'NONE',  ( 1.000000000000000000, 0.000000000000000000, 0.000000000000000000 ) ) ;
#2 = DIRECTION ( 'NONE',  ( -0.000000000000000000, -0.000000000000000000, -1.000000000000000000 ) ) ;
#3 = COORDINATED_UNIVERSAL_TIME_OFFSET ( 5, 0, .BEHIND. ) ;
#4 = AXIS2_PLACEMENT_3D ( 'NONE', #68, #36, #170 ) ;
#5 = CARTESIAN_POINT ( 'NONE',  ( 12.50000000000000000, 1.530808498934191521E-15, 3.000000000000000000 ) ) ;
#6 = APPLICATION_CONTEXT ( 'configuration controlled 3d designs of mechanical parts and assemblies' ) ;
#7 = CALENDAR_DATE ( 2022, 22, 3 ) ;
#8 = ADVANCED_FACE ( 'NONE', ( #91 ), #144, .T. ) ;
#9 = UNCERTAINTY_MEASURE_WITH_UNIT (LENGTH_MEASURE( 1.000000000000000082E-05 ), #135, 'distance_accuracy_value', 'NONE');
#10 = APPROVAL_ROLE ( '' ) ;
#11 = CARTESIAN_POINT ( 'NONE',  ( 0.000000000000000000, 0.000000000000000000, 3.000000000000000000 ) ) ;
#12 = ORIENTED_EDGE ( 'NONE', *, *, #132, .T. ) ;
#13 = LOCAL_TIME ( 10, 58, 4.000000000000000000, #63 ) ;
#14 = VECTOR ( 'NONE', #138, 1000.000000000000000 ) ;
#15 = ORIENTED_EDGE ( 'NONE', *, *, #132, .F. ) ;
#16 = APPROVAL ( #128, 'UNSPECIFIED' ) ;
#17 = ORIENTED_EDGE ( 'NONE', *, *, #166, .T. ) ;
#18 = DIRECTION ( 'NONE',  ( 0.000000000000000000, 0.000000000000000000, 1.000000000000000000 ) ) ;
#19 = CARTESIAN_POINT ( 'NONE',  ( 0.000000000000000000, 0.000000000000000000, 0.000000000000000000 ) ) ;
#20 = DIRECTION ( 'NONE',  ( -1.000000000000000000, 0.000000000000000000, 0.000000000000000000 ) ) ;
#21 =( NAMED_UNIT ( * ) PLANE_ANGLE_UNIT ( ) SI_UNIT ( $, .RADIAN. ) );
#22 = CC_DESIGN_APPROVAL ( #161, ( #119 ) ) ;
#23 = DATE_AND_TIME ( #49, #62 ) ;
#24 = AXIS2_PLACEMENT_3D ( 'NONE', #146, #149, #124 ) ;
#25 = PERSON_AND_ORGANIZATION ( #43, #118 ) ;
#26 = PERSON_AND_ORGANIZATION ( #43, #118 ) ;
#27 = EDGE_LOOP ( 'NONE', ( #17, #102 ) ) ;
#28 = DIRECTION ( 'NONE',  ( 1.000000000000000000, 0.000000000000000000, 0.000000000000000000 ) ) ;
#29 = CARTESIAN_POINT ( 'NONE',  ( 0.000000000000000000, 0.000000000000000000, 3.000000000000000000 ) ) ;
#30 = CC_DESIGN_PERSON_AND_ORGANIZATION_ASSIGNMENT ( #70, #150, ( #119 ) ) ;
#31 = EDGE_CURVE ( 'NONE', #129, #54, #145, .T. ) ;
#32 = EDGE_LOOP ( 'NONE', ( #57, #75 ) ) ;
#33 = AXIS2_PLACEMENT_3D ( 'NONE', #111, #2, #20 ) ;
#34 = CARTESIAN_POINT ( 'NONE',  ( 12.50000000000000000, 1.530808498934191521E-15, 0.000000000000000000 ) ) ;
#35 = DATE_TIME_ROLE ( 'creation_date' ) ;
#36 = DIRECTION ( 'NONE',  ( 0.000000000000000000, 0.000000000000000000, 1.000000000000000000 ) ) ;
#37 = CALENDAR_DATE ( 2022, 22, 3 ) ;
#38 = CARTESIAN_POINT ( 'NONE',  ( -12.50000000000000000, 0.000000000000000000, 3.000000000000000000 ) ) ;
#39 = AXIS2_PLACEMENT_3D ( 'NONE', #29, #78, #134 ) ;
#40 = APPROVAL_DATE_TIME ( #84, #88 ) ;
#41 = SHAPE_DEFINITION_REPRESENTATION ( #165, #131 ) ;
#42 = AXIS2_PLACEMENT_3D ( 'NONE', #11, #66, #1 ) ;
#43 = PERSON ( 'UNSPECIFIED', 'UNSPECIFIED', 'UNSPECIFIED', ('UNSPECIFIED'), ('UNSPECIFIED'), ('UNSPECIFIED') ) ;
#44 = ORIENTED_EDGE ( 'NONE', *, *, #166, .F. ) ;
#45 = MECHANICAL_CONTEXT ( 'NONE', #98, 'mechanical' ) ;
#46 = CIRCLE ( 'NONE', #167, 12.50000000000000000 ) ;
#47 = FACE_OUTER_BOUND ( 'NONE', #116, .T. ) ;
#48 = PERSON_AND_ORGANIZATION ( #43, #118 ) ;
#49 = CALENDAR_DATE ( 2022, 22, 3 ) ;
#50 =( NAMED_UNIT ( * ) SI_UNIT ( $, .STERADIAN. ) SOLID_ANGLE_UNIT ( ) );
#51 = APPROVAL_DATE_TIME ( #100, #16 ) ;
#52 = DIRECTION ( 'NONE',  ( 0.000000000000000000, 0.000000000000000000, 1.000000000000000000 ) ) ;
#53 = CC_DESIGN_APPROVAL ( #88, ( #125 ) ) ;
#54 = VERTEX_POINT ( 'NONE', #56 ) ;
#55 = CC_DESIGN_PERSON_AND_ORGANIZATION_ASSIGNMENT ( #26, #99, ( #174 ) ) ;
#56 = CARTESIAN_POINT ( 'NONE',  ( -12.50000000000000000, 0.000000000000000000, 3.000000000000000000 ) ) ;
#57 = ORIENTED_EDGE ( 'NONE', *, *, #71, .F. ) ;
#58 = LINE ( 'NONE', #110, #112 ) ;
#59 = APPROVAL_PERSON_ORGANIZATION ( #74, #16, #10 ) ;
#60 = ADVANCED_FACE ( 'NONE', ( #64 ), #106, .T. ) ;
#61 = PERSON_AND_ORGANIZATION ( #43, #118 ) ;
#62 = LOCAL_TIME ( 10, 58, 4.000000000000000000, #3 ) ;
#63 = COORDINATED_UNIVERSAL_TIME_OFFSET ( 5, 0, .BEHIND. ) ;
#64 = FACE_OUTER_BOUND ( 'NONE', #27, .T. ) ;
#65 = ORIENTED_EDGE ( 'NONE', *, *, #71, .T. ) ;
#66 = DIRECTION ( 'NONE',  ( 0.000000000000000000, 0.000000000000000000, 1.000000000000000000 ) ) ;
#67 = CC_DESIGN_DATE_AND_TIME_ASSIGNMENT ( #82, #35, ( #119 ) ) ;
#68 = CARTESIAN_POINT ( 'NONE',  ( 0.000000000000000000, 0.000000000000000000, 0.000000000000000000 ) ) ;
#69 = CARTESIAN_POINT ( 'NONE',  ( 0.000000000000000000, 0.000000000000000000, 0.000000000000000000 ) ) ;
#70 = PERSON_AND_ORGANIZATION ( #43, #118 ) ;
#71 = EDGE_CURVE ( 'NONE', #93, #142, #46, .T. ) ;
#72 = CIRCLE ( 'NONE', #24, 12.50000000000000000 ) ;
#73 = PERSON_AND_ORGANIZATION_ROLE ( 'design_supplier' ) ;
#74 = PERSON_AND_ORGANIZATION ( #43, #118 ) ;
#75 = ORIENTED_EDGE ( 'NONE', *, *, #113, .F. ) ;
#76 = CARTESIAN_POINT ( 'NONE',  ( -12.50000000000000000, 0.000000000000000000, 0.000000000000000000 ) ) ;
#77 = ORIENTED_EDGE ( 'NONE', *, *, #101, .T. ) ;
#78 = DIRECTION ( 'NONE',  ( -0.000000000000000000, -0.000000000000000000, -1.000000000000000000 ) ) ;
#79 = AXIS2_PLACEMENT_3D ( 'NONE', #19, #18, #137 ) ;
#80 = ORIENTED_EDGE ( 'NONE', *, *, #113, .T. ) ;
#81 = LINE ( 'NONE', #38, #14 ) ;
#82 = DATE_AND_TIME ( #37, #163 ) ;
#83 = APPROVAL_ROLE ( '' ) ;
#84 = DATE_AND_TIME ( #7, #130 ) ;
#85 = CIRCLE ( 'NONE', #79, 12.50000000000000000 ) ;
#86 = COORDINATED_UNIVERSAL_TIME_OFFSET ( 5, 0, .BEHIND. ) ;
#87 = APPROVAL_ROLE ( '' ) ;
#88 = APPROVAL ( #114, 'UNSPECIFIED' ) ;
#89 = CARTESIAN_POINT ( 'NONE',  ( 0.000000000000000000, 0.000000000000000000, 0.000000000000000000 ) ) ;
#90 = ORIENTED_EDGE ( 'NONE', *, *, #31, .F. ) ;
#91 = FACE_OUTER_BOUND ( 'NONE', #105, .T. ) ;
#92 = LOCAL_TIME ( 10, 58, 4.000000000000000000, #86 ) ;
#93 = VERTEX_POINT ( 'NONE', #76 ) ;
#94 = APPROVAL_DATE_TIME ( #23, #161 ) ;
#95 = PRODUCT_RELATED_PRODUCT_CATEGORY ( 'detail', '', ( #107 ) ) ;
#96 = DIRECTION ( 'NONE',  ( -0.000000000000000000, -0.000000000000000000, -1.000000000000000000 ) ) ;
#97 = PERSON_AND_ORGANIZATION_ROLE ( 'design_owner' ) ;
#98 = APPLICATION_CONTEXT ( 'configuration controlled 3d designs of mechanical parts and assemblies' ) ;
#99 = PERSON_AND_ORGANIZATION_ROLE ( 'classification_officer' ) ;
#100 = DATE_AND_TIME ( #172, #13 ) ;
#101 = EDGE_CURVE ( 'NONE', #54, #93, #81, .T. ) ;
#102 = ORIENTED_EDGE ( 'NONE', *, *, #31, .T. ) ;
#103 = AXIS2_PLACEMENT_3D ( 'NONE', #173, #52, #159 ) ;
#104 = CLOSED_SHELL ( 'NONE', ( #8, #156, #60, #152 ) ) ;
#105 = EDGE_LOOP ( 'NONE', ( #90, #12, #80, #162 ) ) ;
#106 = PLANE ( 'NONE',  #103 ) ;
#107 = PRODUCT ( 'Web Model 19730_19734', 'Web Model 19730_19734', '', ( #45 ) ) ;
#108 = APPROVAL_PERSON_ORGANIZATION ( #61, #161, #83 ) ;
#109 = DIRECTION ( 'NONE',  ( 1.000000000000000000, 0.000000000000000000, 0.000000000000000000 ) ) ;
#110 = CARTESIAN_POINT ( 'NONE',  ( 12.50000000000000000, 1.530808498934191521E-15, 3.000000000000000000 ) ) ;
#111 = CARTESIAN_POINT ( 'NONE',  ( 0.000000000000000000, 0.000000000000000000, 3.000000000000000000 ) ) ;
#112 = VECTOR ( 'NONE', #96, 1000.000000000000000 ) ;
#113 = EDGE_CURVE ( 'NONE', #142, #93, #85, .T. ) ;
#114 = APPROVAL_STATUS ( 'not_yet_approved' ) ;
#115 = PERSON_AND_ORGANIZATION ( #43, #118 ) ;
#116 = EDGE_LOOP ( 'NONE', ( #15, #44, #77, #65 ) ) ;
#117 = CC_DESIGN_SECURITY_CLASSIFICATION ( #174, ( #125 ) ) ;
#118 = ORGANIZATION ( 'UNSPECIFIED', 'UNSPECIFIED', '' ) ;
#119 = PRODUCT_DEFINITION ( 'UNKNOWN', '', #125, #139 ) ;
#120 = CYLINDRICAL_SURFACE ( 'NONE', #33, 12.50000000000000000 ) ;
#121 = MANIFOLD_SOLID_BREP ( 'Boss-Extrude1', #104 ) ;
#122 = DIRECTION ( 'NONE',  ( 0.000000000000000000, 0.000000000000000000, 1.000000000000000000 ) ) ;
#123 = FACE_OUTER_BOUND ( 'NONE', #32, .T. ) ;
#124 = DIRECTION ( 'NONE',  ( 1.000000000000000000, 0.000000000000000000, 0.000000000000000000 ) ) ;
#125 = PRODUCT_DEFINITION_FORMATION_WITH_SPECIFIED_SOURCE ( 'ANY', '', #107, .NOT_KNOWN. ) ;
#126 = CC_DESIGN_DATE_AND_TIME_ASSIGNMENT ( #155, #141, ( #174 ) ) ;
#127 = COORDINATED_UNIVERSAL_TIME_OFFSET ( 5, 0, .BEHIND. ) ;
#128 = APPROVAL_STATUS ( 'not_yet_approved' ) ;
#129 = VERTEX_POINT ( 'NONE', #5 ) ;
#130 = LOCAL_TIME ( 10, 58, 4.000000000000000000, #127 ) ;
#131 = ADVANCED_BREP_SHAPE_REPRESENTATION ( 'Web Model 19730_19734', ( #121, #160 ), #175 ) ;
#132 = EDGE_CURVE ( 'NONE', #129, #142, #58, .T. ) ;
#133 = APPROVAL_PERSON_ORGANIZATION ( #25, #88, #87 ) ;
#134 = DIRECTION ( 'NONE',  ( -1.000000000000000000, 0.000000000000000000, 0.000000000000000000 ) ) ;
#135 =( LENGTH_UNIT ( ) NAMED_UNIT ( * ) SI_UNIT ( .MILLI., .METRE. ) );
#136 = APPROVAL_STATUS ( 'not_yet_approved' ) ;
#137 = DIRECTION ( 'NONE',  ( 1.000000000000000000, 0.000000000000000000, 0.000000000000000000 ) ) ;
#138 = DIRECTION ( 'NONE',  ( -0.000000000000000000, -0.000000000000000000, -1.000000000000000000 ) ) ;
#139 = DESIGN_CONTEXT ( 'detailed design', #6, 'design' ) ;
#140 = SECURITY_CLASSIFICATION_LEVEL ( 'unclassified' ) ;
#141 = DATE_TIME_ROLE ( 'classification_date' ) ;
#142 = VERTEX_POINT ( 'NONE', #34 ) ;
#143 = DIRECTION ( 'NONE',  ( 0.000000000000000000, 0.000000000000000000, 1.000000000000000000 ) ) ;
#144 = CYLINDRICAL_SURFACE ( 'NONE', #39, 12.50000000000000000 ) ;
#145 = CIRCLE ( 'NONE', #42, 12.50000000000000000 ) ;
#146 = CARTESIAN_POINT ( 'NONE',  ( 0.000000000000000000, 0.000000000000000000, 3.000000000000000000 ) ) ;
#147 = CC_DESIGN_PERSON_AND_ORGANIZATION_ASSIGNMENT ( #48, #97, ( #107 ) ) ;
#148 = COORDINATED_UNIVERSAL_TIME_OFFSET ( 5, 0, .BEHIND. ) ;
#149 = DIRECTION ( 'NONE',  ( 0.000000000000000000, 0.000000000000000000, 1.000000000000000000 ) ) ;
#150 = PERSON_AND_ORGANIZATION_ROLE ( 'creator' ) ;
#151 = CC_DESIGN_PERSON_AND_ORGANIZATION_ASSIGNMENT ( #115, #73, ( #125 ) ) ;
#152 = ADVANCED_FACE ( 'NONE', ( #123 ), #169, .F. ) ;
#153 = APPLICATION_PROTOCOL_DEFINITION ( 'international standard', 'config_control_design', 1994, #98 ) ;
#154 = CALENDAR_DATE ( 2022, 22, 3 ) ;
#155 = DATE_AND_TIME ( #154, #92 ) ;
#156 = ADVANCED_FACE ( 'NONE', ( #47 ), #120, .T. ) ;
#157 = PERSON_AND_ORGANIZATION ( #43, #118 ) ;
#158 = CC_DESIGN_APPROVAL ( #16, ( #174 ) ) ;
#159 = DIRECTION ( 'NONE',  ( 1.000000000000000000, 0.000000000000000000, -0.000000000000000000 ) ) ;
#160 = AXIS2_PLACEMENT_3D ( 'NONE', #69, #122, #109 ) ;
#161 = APPROVAL ( #136, 'UNSPECIFIED' ) ;
#162 = ORIENTED_EDGE ( 'NONE', *, *, #101, .F. ) ;
#163 = LOCAL_TIME ( 10, 58, 4.000000000000000000, #148 ) ;
#164 = CC_DESIGN_PERSON_AND_ORGANIZATION_ASSIGNMENT ( #157, #171, ( #125 ) ) ;
#165 = PRODUCT_DEFINITION_SHAPE ( 'NONE', 'NONE',  #119 ) ;
#166 = EDGE_CURVE ( 'NONE', #54, #129, #72, .T. ) ;
#167 = AXIS2_PLACEMENT_3D ( 'NONE', #89, #143, #28 ) ;
#168 = APPLICATION_PROTOCOL_DEFINITION ( 'international standard', 'config_control_design', 1994, #6 ) ;
#169 = PLANE ( 'NONE',  #4 ) ;
#170 = DIRECTION ( 'NONE',  ( 1.000000000000000000, 0.000000000000000000, -0.000000000000000000 ) ) ;
#171 = PERSON_AND_ORGANIZATION_ROLE ( 'creator' ) ;
#172 = CALENDAR_DATE ( 2022, 22, 3 ) ;
#173 = CARTESIAN_POINT ( 'NONE',  ( 0.000000000000000000, 0.000000000000000000, 3.000000000000000000 ) ) ;
#174 = SECURITY_CLASSIFICATION ( '', '', #140 ) ;
#175 =( GEOMETRIC_REPRESENTATION_CONTEXT ( 3 ) GLOBAL_UNCERTAINTY_ASSIGNED_CONTEXT ( ( #9 ) ) GLOBAL_UNIT_ASSIGNED_CONTEXT ( ( #135, #21, #50 ) ) REPRESENTATION_CONTEXT ( 'NONE', 'WORKASPACE' ) );
ENDSEC;
END-ISO-10303-21;
