ISO-10303-21;
HEADER;
FILE_DESCRIPTION (( 'STEP AP203' ),
    '1' );
FILE_NAME ('Web Model 38911_39015.step',
    '2018-10-18T19:48:40',
    ( '' ),
    ( '' ),
    'SwSTEP 2.0',
    'SolidWorks 2016',
    '' );
FILE_SCHEMA (( 'CONFIG_CONTROL_DESIGN' ));
ENDSEC;

DATA;
#1 = APPROVAL_DATE_TIME ( #40, #29 ) ;
#2 = PERSON_AND_ORGANIZATION_ROLE ( 'design_owner' ) ;
#3 = DIRECTION ( 'NONE',  ( 1.000000000000000000, 0.0000000000000000000, 0.0000000000000000000 ) ) ;
#4 = CIRCLE ( 'NONE', #148, 9.550000000000000700 ) ;
#5 = PERSON ( 'UNSPECIFIED', 'UNSPECIFIED', 'UNSPECIFIED', ('UNSPECIFIED'), ('UNSPECIFIED'), ('UNSPECIFIED') ) ;
#6 = AXIS2_PLACEMENT_3D ( 'NONE', #18, #67, #32 ) ;
#7 = EDGE_LOOP ( 'NONE', ( #56, #50 ) ) ;
#8 = EDGE_CURVE ( 'NONE', #39, #80, #4, .T. ) ;
#9 = ORIENTED_EDGE ( 'NONE', *, *, #76, .T. ) ;
#10 = CC_DESIGN_PERSON_AND_ORGANIZATION_ASSIGNMENT ( #48, #129, ( #36 ) ) ;
#11 = FACE_OUTER_BOUND ( 'NONE', #31, .T. ) ;
#12 = CC_DESIGN_APPROVAL ( #29, ( #114 ) ) ;
#13 = EDGE_CURVE ( 'NONE', #81, #80, #140, .T. ) ;
#14 = DIRECTION ( 'NONE',  ( 1.000000000000000000, 0.0000000000000000000, -0.0000000000000000000 ) ) ;
#15 = APPROVAL_DATE_TIME ( #26, #45 ) ;
#16 = COORDINATED_UNIVERSAL_TIME_OFFSET ( 5, 0, .BEHIND. ) ;
#17 = DIRECTION ( 'NONE',  ( 0.0000000000000000000, 0.0000000000000000000, 1.000000000000000000 ) ) ;
#18 = CARTESIAN_POINT ( 'NONE',  ( 0.0000000000000000000, 0.0000000000000000000, 3.174999999999999800 ) ) ;
#19 = CARTESIAN_POINT ( 'NONE',  ( 0.0000000000000000000, 0.0000000000000000000, -3.174999999999999800 ) ) ;
#20 = DIRECTION ( 'NONE',  ( -0.0000000000000000000, -0.0000000000000000000, -1.000000000000000000 ) ) ;
#21 = EDGE_LOOP ( 'NONE', ( #69, #97, #61, #42 ) ) ;
#22 =( NAMED_UNIT ( * ) PLANE_ANGLE_UNIT ( ) SI_UNIT ( $, .RADIAN. ) );
#23 = PERSON_AND_ORGANIZATION ( #5, #125 ) ;
#24 = PERSON_AND_ORGANIZATION ( #5, #125 ) ;
#25 = CC_DESIGN_DATE_AND_TIME_ASSIGNMENT ( #131, #34, ( #114 ) ) ;
#26 = DATE_AND_TIME ( #169, #162 ) ;
#27 = SHAPE_DEFINITION_REPRESENTATION ( #118, #119 ) ;
#28 = APPROVAL_PERSON_ORGANIZATION ( #173, #45, #161 ) ;
#29 = APPROVAL ( #147, 'UNSPECIFIED' ) ;
#30 = EDGE_CURVE ( 'NONE', #80, #39, #117, .T. ) ;
#31 = EDGE_LOOP ( 'NONE', ( #174, #47, #145, #110 ) ) ;
#32 = DIRECTION ( 'NONE',  ( -1.000000000000000000, 0.0000000000000000000, 0.0000000000000000000 ) ) ;
#33 =( LENGTH_UNIT ( ) NAMED_UNIT ( * ) SI_UNIT ( .MILLI., .METRE. ) );
#34 = DATE_TIME_ROLE ( 'creation_date' ) ;
#35 = PERSON_AND_ORGANIZATION ( #5, #125 ) ;
#36 = PRODUCT_DEFINITION_FORMATION_WITH_SPECIFIED_SOURCE ( 'ANY', '', #163, .NOT_KNOWN. ) ;
#37 = LOCAL_TIME ( 15, 48, 40.00000000000000000, #38 ) ;
#38 = COORDINATED_UNIVERSAL_TIME_OFFSET ( 5, 0, .BEHIND. ) ;
#39 = VERTEX_POINT ( 'NONE', #55 ) ;
#40 = DATE_AND_TIME ( #79, #151 ) ;
#41 = CALENDAR_DATE ( 2018, 18, 10 ) ;
#42 = ORIENTED_EDGE ( 'NONE', *, *, #13, .F. ) ;
#43 = DIRECTION ( 'NONE',  ( -0.0000000000000000000, -0.0000000000000000000, -1.000000000000000000 ) ) ;
#44 = DIRECTION ( 'NONE',  ( -0.0000000000000000000, -0.0000000000000000000, -1.000000000000000000 ) ) ;
#45 = APPROVAL ( #91, 'UNSPECIFIED' ) ;
#46 = APPROVAL_ROLE ( '' ) ;
#47 = ORIENTED_EDGE ( 'NONE', *, *, #76, .F. ) ;
#48 = PERSON_AND_ORGANIZATION ( #5, #125 ) ;
#49 = COORDINATED_UNIVERSAL_TIME_OFFSET ( 5, 0, .BEHIND. ) ;
#50 = ORIENTED_EDGE ( 'NONE', *, *, #8, .F. ) ;
#51 = APPROVAL_PERSON_ORGANIZATION ( #24, #29, #46 ) ;
#52 = ADVANCED_FACE ( 'NONE', ( #150 ), #82, .F. ) ;
#53 = CC_DESIGN_APPROVAL ( #45, ( #36 ) ) ;
#54 = ADVANCED_FACE ( 'NONE', ( #95 ), #142, .T. ) ;
#55 = CARTESIAN_POINT ( 'NONE',  ( 9.550000000000000700, 1.169537693185722600E-015, -3.174999999999999800 ) ) ;
#56 = ORIENTED_EDGE ( 'NONE', *, *, #30, .F. ) ;
#57 = DIRECTION ( 'NONE',  ( 0.0000000000000000000, 0.0000000000000000000, 1.000000000000000000 ) ) ;
#58 =( GEOMETRIC_REPRESENTATION_CONTEXT ( 3 ) GLOBAL_UNCERTAINTY_ASSIGNED_CONTEXT ( ( #167 ) ) GLOBAL_UNIT_ASSIGNED_CONTEXT ( ( #33, #22, #105 ) ) REPRESENTATION_CONTEXT ( 'NONE', 'WORKASPACE' ) );
#59 = LOCAL_TIME ( 15, 48, 40.00000000000000000, #164 ) ;
#60 = DIRECTION ( 'NONE',  ( 0.0000000000000000000, 0.0000000000000000000, 1.000000000000000000 ) ) ;
#61 = ORIENTED_EDGE ( 'NONE', *, *, #8, .T. ) ;
#62 = CC_DESIGN_PERSON_AND_ORGANIZATION_ASSIGNMENT ( #23, #138, ( #36 ) ) ;
#63 = CC_DESIGN_PERSON_AND_ORGANIZATION_ASSIGNMENT ( #123, #71, ( #114 ) ) ;
#64 = FACE_OUTER_BOUND ( 'NONE', #139, .T. ) ;
#65 = CC_DESIGN_DATE_AND_TIME_ASSIGNMENT ( #127, #90, ( #72 ) ) ;
#66 = APPROVAL_DATE_TIME ( #94, #154 ) ;
#67 = DIRECTION ( 'NONE',  ( -0.0000000000000000000, -0.0000000000000000000, -1.000000000000000000 ) ) ;
#68 = CARTESIAN_POINT ( 'NONE',  ( 0.0000000000000000000, 0.0000000000000000000, -3.174999999999999800 ) ) ;
#69 = ORIENTED_EDGE ( 'NONE', *, *, #168, .F. ) ;
#70 = DIRECTION ( 'NONE',  ( -1.000000000000000000, 0.0000000000000000000, 0.0000000000000000000 ) ) ;
#71 = PERSON_AND_ORGANIZATION_ROLE ( 'creator' ) ;
#72 = SECURITY_CLASSIFICATION ( '', '', #104 ) ;
#73 = MECHANICAL_CONTEXT ( 'NONE', #87, 'mechanical' ) ;
#74 = APPLICATION_CONTEXT ( 'configuration controlled 3d designs of mechanical parts and assemblies' ) ;
#75 = LOCAL_TIME ( 15, 48, 40.00000000000000000, #16 ) ;
#76 = EDGE_CURVE ( 'NONE', #81, #128, #134, .T. ) ;
#77 = APPLICATION_PROTOCOL_DEFINITION ( 'international standard', 'config_control_design', 1994, #87 ) ;
#78 = VECTOR ( 'NONE', #20, 1000.000000000000000 ) ;
#79 = CALENDAR_DATE ( 2018, 18, 10 ) ;
#80 = VERTEX_POINT ( 'NONE', #172 ) ;
#81 = VERTEX_POINT ( 'NONE', #124 ) ;
#82 = PLANE ( 'NONE',  #120 ) ;
#83 = ADVANCED_FACE ( 'NONE', ( #64 ), #84, .T. ) ;
#84 = PLANE ( 'NONE',  #135 ) ;
#85 = COORDINATED_UNIVERSAL_TIME_OFFSET ( 5, 0, .BEHIND. ) ;
#86 = AXIS2_PLACEMENT_3D ( 'NONE', #111, #157, #133 ) ;
#87 = APPLICATION_CONTEXT ( 'configuration controlled 3d designs of mechanical parts and assemblies' ) ;
#88 = ORIENTED_EDGE ( 'NONE', *, *, #168, .T. ) ;
#89 = APPLICATION_PROTOCOL_DEFINITION ( 'international standard', 'config_control_design', 1994, #74 ) ;
#90 = DATE_TIME_ROLE ( 'classification_date' ) ;
#91 = APPROVAL_STATUS ( 'not_yet_approved' ) ;
#92 = PERSON_AND_ORGANIZATION ( #5, #125 ) ;
#93 = CC_DESIGN_SECURITY_CLASSIFICATION ( #72, ( #36 ) ) ;
#94 = DATE_AND_TIME ( #155, #37 ) ;
#95 = FACE_OUTER_BOUND ( 'NONE', #21, .T. ) ;
#96 = CC_DESIGN_APPROVAL ( #154, ( #72 ) ) ;
#97 = ORIENTED_EDGE ( 'NONE', *, *, #160, .T. ) ;
#98 = CARTESIAN_POINT ( 'NONE',  ( 0.0000000000000000000, 0.0000000000000000000, 3.174999999999999800 ) ) ;
#99 = CARTESIAN_POINT ( 'NONE',  ( 9.550000000000000700, 1.169537693185722600E-015, 3.174999999999999800 ) ) ;
#100 = DIRECTION ( 'NONE',  ( 0.0000000000000000000, 0.0000000000000000000, 1.000000000000000000 ) ) ;
#101 = DIRECTION ( 'NONE',  ( 0.0000000000000000000, 0.0000000000000000000, 1.000000000000000000 ) ) ;
#102 = PERSON_AND_ORGANIZATION_ROLE ( 'classification_officer' ) ;
#103 = CALENDAR_DATE ( 2018, 18, 10 ) ;
#104 = SECURITY_CLASSIFICATION_LEVEL ( 'unclassified' ) ;
#105 =( NAMED_UNIT ( * ) SI_UNIT ( $, .STERADIAN. ) SOLID_ANGLE_UNIT ( ) );
#106 = AXIS2_PLACEMENT_3D ( 'NONE', #68, #17, #170 ) ;
#107 = CLOSED_SHELL ( 'NONE', ( #54, #156, #83, #52 ) ) ;
#108 = PERSON_AND_ORGANIZATION ( #5, #125 ) ;
#109 = DIRECTION ( 'NONE',  ( 1.000000000000000000, 0.0000000000000000000, 0.0000000000000000000 ) ) ;
#110 = ORIENTED_EDGE ( 'NONE', *, *, #30, .T. ) ;
#111 = CARTESIAN_POINT ( 'NONE',  ( 0.0000000000000000000, 0.0000000000000000000, 3.174999999999999800 ) ) ;
#112 = MANIFOLD_SOLID_BREP ( 'Boss-Extrude1', #107 ) ;
#113 = APPROVAL_ROLE ( '' ) ;
#114 = PRODUCT_DEFINITION ( 'UNKNOWN', '', #36, #143 ) ;
#115 = DIRECTION ( 'NONE',  ( 1.000000000000000000, 0.0000000000000000000, 0.0000000000000000000 ) ) ;
#116 = VECTOR ( 'NONE', #43, 1000.000000000000000 ) ;
#117 = CIRCLE ( 'NONE', #106, 9.550000000000000700 ) ;
#118 = PRODUCT_DEFINITION_SHAPE ( 'NONE', 'NONE',  #114 ) ;
#119 = ADVANCED_BREP_SHAPE_REPRESENTATION ( 'Web Model 38911_39015', ( #112, #166 ), #58 ) ;
#120 = AXIS2_PLACEMENT_3D ( 'NONE', #19, #101, #14 ) ;
#121 = LINE ( 'NONE', #149, #78 ) ;
#122 = CARTESIAN_POINT ( 'NONE',  ( 0.0000000000000000000, 0.0000000000000000000, -3.174999999999999800 ) ) ;
#123 = PERSON_AND_ORGANIZATION ( #5, #125 ) ;
#124 = CARTESIAN_POINT ( 'NONE',  ( -9.550000000000000700, 0.0000000000000000000, 3.174999999999999800 ) ) ;
#125 = ORGANIZATION ( 'UNSPECIFIED', 'UNSPECIFIED', '' ) ;
#126 = CARTESIAN_POINT ( 'NONE',  ( 0.0000000000000000000, 0.0000000000000000000, 0.0000000000000000000 ) ) ;
#127 = DATE_AND_TIME ( #103, #59 ) ;
#128 = VERTEX_POINT ( 'NONE', #99 ) ;
#129 = PERSON_AND_ORGANIZATION_ROLE ( 'creator' ) ;
#130 = PRODUCT_RELATED_PRODUCT_CATEGORY ( 'detail', '', ( #163 ) ) ;
#131 = DATE_AND_TIME ( #41, #75 ) ;
#132 = CARTESIAN_POINT ( 'NONE',  ( -9.550000000000000700, 0.0000000000000000000, 3.174999999999999800 ) ) ;
#133 = DIRECTION ( 'NONE',  ( 1.000000000000000000, 0.0000000000000000000, 0.0000000000000000000 ) ) ;
#134 = CIRCLE ( 'NONE', #86, 9.550000000000000700 ) ;
#135 = AXIS2_PLACEMENT_3D ( 'NONE', #158, #100, #175 ) ;
#136 = APPROVAL_STATUS ( 'not_yet_approved' ) ;
#137 = APPROVAL_PERSON_ORGANIZATION ( #108, #154, #113 ) ;
#138 = PERSON_AND_ORGANIZATION_ROLE ( 'design_supplier' ) ;
#139 = EDGE_LOOP ( 'NONE', ( #9, #88 ) ) ;
#140 = LINE ( 'NONE', #132, #116 ) ;
#141 = CC_DESIGN_PERSON_AND_ORGANIZATION_ASSIGNMENT ( #92, #2, ( #163 ) ) ;
#142 = CYLINDRICAL_SURFACE ( 'NONE', #6, 9.550000000000000700 ) ;
#143 = DESIGN_CONTEXT ( 'detailed design', #74, 'design' ) ;
#144 = CC_DESIGN_PERSON_AND_ORGANIZATION_ASSIGNMENT ( #35, #102, ( #72 ) ) ;
#145 = ORIENTED_EDGE ( 'NONE', *, *, #13, .T. ) ;
#146 = DIRECTION ( 'NONE',  ( 0.0000000000000000000, 0.0000000000000000000, 1.000000000000000000 ) ) ;
#147 = APPROVAL_STATUS ( 'not_yet_approved' ) ;
#148 = AXIS2_PLACEMENT_3D ( 'NONE', #122, #146, #109 ) ;
#149 = CARTESIAN_POINT ( 'NONE',  ( 9.550000000000000700, 1.169537693185722600E-015, 3.174999999999999800 ) ) ;
#150 = FACE_OUTER_BOUND ( 'NONE', #7, .T. ) ;
#151 = LOCAL_TIME ( 15, 48, 40.00000000000000000, #49 ) ;
#152 = AXIS2_PLACEMENT_3D ( 'NONE', #159, #57, #3 ) ;
#153 = CYLINDRICAL_SURFACE ( 'NONE', #171, 9.550000000000000700 ) ;
#154 = APPROVAL ( #136, 'UNSPECIFIED' ) ;
#155 = CALENDAR_DATE ( 2018, 18, 10 ) ;
#156 = ADVANCED_FACE ( 'NONE', ( #11 ), #153, .T. ) ;
#157 = DIRECTION ( 'NONE',  ( 0.0000000000000000000, 0.0000000000000000000, 1.000000000000000000 ) ) ;
#158 = CARTESIAN_POINT ( 'NONE',  ( 0.0000000000000000000, 0.0000000000000000000, 3.174999999999999800 ) ) ;
#159 = CARTESIAN_POINT ( 'NONE',  ( 0.0000000000000000000, 0.0000000000000000000, 3.174999999999999800 ) ) ;
#160 = EDGE_CURVE ( 'NONE', #128, #39, #121, .T. ) ;
#161 = APPROVAL_ROLE ( '' ) ;
#162 = LOCAL_TIME ( 15, 48, 40.00000000000000000, #85 ) ;
#163 = PRODUCT ( 'Web Model 38911_39015', 'Web Model 38911_39015', '', ( #73 ) ) ;
#164 = COORDINATED_UNIVERSAL_TIME_OFFSET ( 5, 0, .BEHIND. ) ;
#165 = CIRCLE ( 'NONE', #152, 9.550000000000000700 ) ;
#166 = AXIS2_PLACEMENT_3D ( 'NONE', #126, #60, #115 ) ;
#167 = UNCERTAINTY_MEASURE_WITH_UNIT (LENGTH_MEASURE( 1.000000000000000100E-005 ), #33, 'distance_accuracy_value', 'NONE');
#168 = EDGE_CURVE ( 'NONE', #128, #81, #165, .T. ) ;
#169 = CALENDAR_DATE ( 2018, 18, 10 ) ;
#170 = DIRECTION ( 'NONE',  ( 1.000000000000000000, 0.0000000000000000000, 0.0000000000000000000 ) ) ;
#171 = AXIS2_PLACEMENT_3D ( 'NONE', #98, #44, #70 ) ;
#172 = CARTESIAN_POINT ( 'NONE',  ( -9.550000000000000700, 0.0000000000000000000, -3.174999999999999800 ) ) ;
#173 = PERSON_AND_ORGANIZATION ( #5, #125 ) ;
#174 = ORIENTED_EDGE ( 'NONE', *, *, #160, .F. ) ;
#175 = DIRECTION ( 'NONE',  ( 1.000000000000000000, 0.0000000000000000000, -0.0000000000000000000 ) ) ;
ENDSEC;
END-ISO-10303-21;
