ISO-10303-21;
HEADER;
FILE_DESCRIPTION (( 'STEP AP203' ),
    '1' );
FILE_NAME ('Web Model 48854_14803.step',
    '2020-10-07T17:32:11',
    ( '' ),
    ( '' ),
    'SwSTEP 2.0',
    'SolidWorks 2018',
    '' );
FILE_SCHEMA (( 'CONFIG_CONTROL_DESIGN' ));
ENDSEC;

DATA;
#1 = CARTESIAN_POINT ( 'NONE',  ( 0.0000000000000000000, 0.0000000000000000000, 0.0000000000000000000 ) ) ;
#2 = AXIS2_PLACEMENT_3D ( 'NONE', #43, #121, #63 ) ;
#3 = PERSON_AND_ORGANIZATION ( #111, #102 ) ;
#4 = CALENDAR_DATE ( 2020, 7, 10 ) ;
#5 = EDGE_CURVE ( 'NONE', #154, #22, #100, .T. ) ;
#6 = LOCAL_TIME ( 13, 32, 11.00000000000000000, #118 ) ;
#7 = APPROVAL_DATE_TIME ( #44, #87 ) ;
#8 = CC_DESIGN_APPROVAL ( #175, ( #164 ) ) ;
#9 = APPROVAL_DATE_TIME ( #151, #26 ) ;
#10 = CC_DESIGN_DATE_AND_TIME_ASSIGNMENT ( #28, #106, ( #164 ) ) ;
#11 =( GEOMETRIC_REPRESENTATION_CONTEXT ( 3 ) GLOBAL_UNCERTAINTY_ASSIGNED_CONTEXT ( ( #127 ) ) GLOBAL_UNIT_ASSIGNED_CONTEXT ( ( #70, #82, #109 ) ) REPRESENTATION_CONTEXT ( 'NONE', 'WORKASPACE' ) );
#12 = CIRCLE ( 'NONE', #101, 7.500000000000000000 ) ;
#13 = PLANE ( 'NONE',  #112 ) ;
#14 = CIRCLE ( 'NONE', #2, 7.500000000000000000 ) ;
#15 = ORIENTED_EDGE ( 'NONE', *, *, #5, .T. ) ;
#16 = APPLICATION_PROTOCOL_DEFINITION ( 'international standard', 'config_control_design', 1994, #93 ) ;
#17 = PRODUCT_DEFINITION_FORMATION_WITH_SPECIFIED_SOURCE ( 'ANY', '', #76, .NOT_KNOWN. ) ;
#18 = LOCAL_TIME ( 13, 32, 11.00000000000000000, #88 ) ;
#19 = DESIGN_CONTEXT ( 'detailed design', #93, 'design' ) ;
#20 = VERTEX_POINT ( 'NONE', #36 ) ;
#21 = EDGE_CURVE ( 'NONE', #137, #154, #40, .T. ) ;
#22 = VERTEX_POINT ( 'NONE', #153 ) ;
#23 = PERSON_AND_ORGANIZATION ( #111, #102 ) ;
#24 = APPROVAL_PERSON_ORGANIZATION ( #105, #87, #27 ) ;
#25 = ORIENTED_EDGE ( 'NONE', *, *, #134, .F. ) ;
#26 = APPROVAL ( #104, 'UNSPECIFIED' ) ;
#27 = APPROVAL_ROLE ( '' ) ;
#28 = DATE_AND_TIME ( #59, #33 ) ;
#29 = CARTESIAN_POINT ( 'NONE',  ( 0.0000000000000000000, 0.0000000000000000000, -1.000000000000000000 ) ) ;
#30 = CC_DESIGN_DATE_AND_TIME_ASSIGNMENT ( #142, #173, ( #73 ) ) ;
#31 = PRODUCT_DEFINITION_SHAPE ( 'NONE', 'NONE',  #164 ) ;
#32 = PERSON_AND_ORGANIZATION_ROLE ( 'creator' ) ;
#33 = LOCAL_TIME ( 13, 32, 11.00000000000000000, #65 ) ;
#34 = CC_DESIGN_APPROVAL ( #26, ( #17 ) ) ;
#35 = DIRECTION ( 'NONE',  ( 1.000000000000000000, 0.0000000000000000000, 0.0000000000000000000 ) ) ;
#36 = CARTESIAN_POINT ( 'NONE',  ( 7.500000000000000000, 9.184850993605147944E-16, 1.000000000000000000 ) ) ;
#37 = ORIENTED_EDGE ( 'NONE', *, *, #21, .F. ) ;
#38 = DIRECTION ( 'NONE',  ( -0.0000000000000000000, -0.0000000000000000000, -1.000000000000000000 ) ) ;
#39 = COORDINATED_UNIVERSAL_TIME_OFFSET ( 5, 0, .BEHIND. ) ;
#40 = LINE ( 'NONE', #58, #86 ) ;
#41 = APPLICATION_CONTEXT ( 'configuration controlled 3d designs of mechanical parts and assemblies' ) ;
#42 = DIRECTION ( 'NONE',  ( 0.0000000000000000000, 0.0000000000000000000, 1.000000000000000000 ) ) ;
#43 = CARTESIAN_POINT ( 'NONE',  ( 0.0000000000000000000, 0.0000000000000000000, 1.000000000000000000 ) ) ;
#44 = DATE_AND_TIME ( #66, #125 ) ;
#45 = ADVANCED_BREP_SHAPE_REPRESENTATION ( 'Web Model 48854_14803', ( #52, #75 ), #11 ) ;
#46 = EDGE_LOOP ( 'NONE', ( #138, #92, #120, #15 ) ) ;
#47 = AXIS2_PLACEMENT_3D ( 'NONE', #130, #170, #62 ) ;
#48 = ORIENTED_EDGE ( 'NONE', *, *, #169, .T. ) ;
#49 = LOCAL_TIME ( 13, 32, 11.00000000000000000, #39 ) ;
#50 = CYLINDRICAL_SURFACE ( 'NONE', #165, 7.500000000000000000 ) ;
#51 = DIRECTION ( 'NONE',  ( 1.000000000000000000, 0.0000000000000000000, 0.0000000000000000000 ) ) ;
#52 = MANIFOLD_SOLID_BREP ( 'Boss-Extrude1', #150 ) ;
#53 = PERSON_AND_ORGANIZATION ( #111, #102 ) ;
#54 = CC_DESIGN_APPROVAL ( #87, ( #73 ) ) ;
#55 = ADVANCED_FACE ( 'NONE', ( #108 ), #57, .T. ) ;
#56 = EDGE_CURVE ( 'NONE', #20, #22, #149, .T. ) ;
#57 = CYLINDRICAL_SURFACE ( 'NONE', #80, 7.500000000000000000 ) ;
#58 = CARTESIAN_POINT ( 'NONE',  ( -7.500000000000000000, 0.0000000000000000000, 1.000000000000000000 ) ) ;
#59 = CALENDAR_DATE ( 2020, 7, 10 ) ;
#60 = FACE_OUTER_BOUND ( 'NONE', #83, .T. ) ;
#61 = APPROVAL_DATE_TIME ( #146, #175 ) ;
#62 = DIRECTION ( 'NONE',  ( 1.000000000000000000, 0.0000000000000000000, -0.0000000000000000000 ) ) ;
#63 = DIRECTION ( 'NONE',  ( 1.000000000000000000, 0.0000000000000000000, 0.0000000000000000000 ) ) ;
#64 = CC_DESIGN_PERSON_AND_ORGANIZATION_ASSIGNMENT ( #53, #94, ( #76 ) ) ;
#65 = COORDINATED_UNIVERSAL_TIME_OFFSET ( 5, 0, .BEHIND. ) ;
#66 = CALENDAR_DATE ( 2020, 7, 10 ) ;
#67 = MECHANICAL_CONTEXT ( 'NONE', #41, 'mechanical' ) ;
#68 = DIRECTION ( 'NONE',  ( 0.0000000000000000000, 0.0000000000000000000, 1.000000000000000000 ) ) ;
#69 = VECTOR ( 'NONE', #38, 1000.000000000000000 ) ;
#70 =( LENGTH_UNIT ( ) NAMED_UNIT ( * ) SI_UNIT ( .MILLI., .METRE. ) );
#71 = EDGE_LOOP ( 'NONE', ( #25, #161, #128, #37 ) ) ;
#72 = PERSON_AND_ORGANIZATION ( #111, #102 ) ;
#73 = SECURITY_CLASSIFICATION ( '', '', #123 ) ;
#74 = SHAPE_DEFINITION_REPRESENTATION ( #31, #45 ) ;
#75 = AXIS2_PLACEMENT_3D ( 'NONE', #1, #42, #174 ) ;
#76 = PRODUCT ( 'Web Model 48854_14803', 'Web Model 48854_14803', '', ( #67 ) ) ;
#77 = ORIENTED_EDGE ( 'NONE', *, *, #157, .F. ) ;
#78 = PLANE ( 'NONE',  #47 ) ;
#79 = CIRCLE ( 'NONE', #155, 7.500000000000000000 ) ;
#80 = AXIS2_PLACEMENT_3D ( 'NONE', #143, #168, #129 ) ;
#81 = APPLICATION_PROTOCOL_DEFINITION ( 'international standard', 'config_control_design', 1994, #41 ) ;
#82 =( NAMED_UNIT ( * ) PLANE_ANGLE_UNIT ( ) SI_UNIT ( $, .RADIAN. ) );
#83 = EDGE_LOOP ( 'NONE', ( #48, #85 ) ) ;
#84 = PERSON_AND_ORGANIZATION_ROLE ( 'design_supplier' ) ;
#85 = ORIENTED_EDGE ( 'NONE', *, *, #134, .T. ) ;
#86 = VECTOR ( 'NONE', #98, 1000.000000000000000 ) ;
#87 = APPROVAL ( #110, 'UNSPECIFIED' ) ;
#88 = COORDINATED_UNIVERSAL_TIME_OFFSET ( 5, 0, .BEHIND. ) ;
#89 = ORIENTED_EDGE ( 'NONE', *, *, #5, .F. ) ;
#90 = APPROVAL_ROLE ( '' ) ;
#91 = CC_DESIGN_PERSON_AND_ORGANIZATION_ASSIGNMENT ( #103, #84, ( #17 ) ) ;
#92 = ORIENTED_EDGE ( 'NONE', *, *, #169, .F. ) ;
#93 = APPLICATION_CONTEXT ( 'configuration controlled 3d designs of mechanical parts and assemblies' ) ;
#94 = PERSON_AND_ORGANIZATION_ROLE ( 'design_owner' ) ;
#95 = APPROVAL_ROLE ( '' ) ;
#96 = ADVANCED_FACE ( 'NONE', ( #60 ), #78, .T. ) ;
#97 = CALENDAR_DATE ( 2020, 7, 10 ) ;
#98 = DIRECTION ( 'NONE',  ( -0.0000000000000000000, -0.0000000000000000000, -1.000000000000000000 ) ) ;
#99 = CC_DESIGN_PERSON_AND_ORGANIZATION_ASSIGNMENT ( #166, #32, ( #164 ) ) ;
#100 = CIRCLE ( 'NONE', #131, 7.500000000000000000 ) ;
#101 = AXIS2_PLACEMENT_3D ( 'NONE', #133, #68, #162 ) ;
#102 = ORGANIZATION ( 'UNSPECIFIED', 'UNSPECIFIED', '' ) ;
#103 = PERSON_AND_ORGANIZATION ( #111, #102 ) ;
#104 = APPROVAL_STATUS ( 'not_yet_approved' ) ;
#105 = PERSON_AND_ORGANIZATION ( #111, #102 ) ;
#106 = DATE_TIME_ROLE ( 'creation_date' ) ;
#107 = DIRECTION ( 'NONE',  ( 1.000000000000000000, 0.0000000000000000000, -0.0000000000000000000 ) ) ;
#108 = FACE_OUTER_BOUND ( 'NONE', #46, .T. ) ;
#109 =( NAMED_UNIT ( * ) SI_UNIT ( $, .STERADIAN. ) SOLID_ANGLE_UNIT ( ) );
#110 = APPROVAL_STATUS ( 'not_yet_approved' ) ;
#111 = PERSON ( 'UNSPECIFIED', 'UNSPECIFIED', 'UNSPECIFIED', ('UNSPECIFIED'), ('UNSPECIFIED'), ('UNSPECIFIED') ) ;
#112 = AXIS2_PLACEMENT_3D ( 'NONE', #29, #172, #107 ) ;
#113 = FACE_OUTER_BOUND ( 'NONE', #71, .T. ) ;
#114 = CARTESIAN_POINT ( 'NONE',  ( 0.0000000000000000000, 0.0000000000000000000, -1.000000000000000000 ) ) ;
#115 = EDGE_LOOP ( 'NONE', ( #89, #77 ) ) ;
#116 = DIRECTION ( 'NONE',  ( 0.0000000000000000000, 0.0000000000000000000, 1.000000000000000000 ) ) ;
#117 = CARTESIAN_POINT ( 'NONE',  ( 7.500000000000000000, 9.184850993605147944E-16, 1.000000000000000000 ) ) ;
#118 = COORDINATED_UNIVERSAL_TIME_OFFSET ( 5, 0, .BEHIND. ) ;
#119 = CARTESIAN_POINT ( 'NONE',  ( 0.0000000000000000000, 0.0000000000000000000, -1.000000000000000000 ) ) ;
#120 = ORIENTED_EDGE ( 'NONE', *, *, #21, .T. ) ;
#121 = DIRECTION ( 'NONE',  ( 0.0000000000000000000, 0.0000000000000000000, 1.000000000000000000 ) ) ;
#122 = CALENDAR_DATE ( 2020, 7, 10 ) ;
#123 = SECURITY_CLASSIFICATION_LEVEL ( 'unclassified' ) ;
#124 = APPROVAL_PERSON_ORGANIZATION ( #23, #26, #95 ) ;
#125 = LOCAL_TIME ( 13, 32, 11.00000000000000000, #159 ) ;
#126 = ADVANCED_FACE ( 'NONE', ( #139 ), #13, .F. ) ;
#127 = UNCERTAINTY_MEASURE_WITH_UNIT (LENGTH_MEASURE( 1.000000000000000082E-05 ), #70, 'distance_accuracy_value', 'NONE');
#128 = ORIENTED_EDGE ( 'NONE', *, *, #157, .T. ) ;
#129 = DIRECTION ( 'NONE',  ( -1.000000000000000000, 0.0000000000000000000, 0.0000000000000000000 ) ) ;
#130 = CARTESIAN_POINT ( 'NONE',  ( 0.0000000000000000000, 0.0000000000000000000, 1.000000000000000000 ) ) ;
#131 = AXIS2_PLACEMENT_3D ( 'NONE', #114, #116, #35 ) ;
#132 = APPROVAL_PERSON_ORGANIZATION ( #3, #175, #90 ) ;
#133 = CARTESIAN_POINT ( 'NONE',  ( 0.0000000000000000000, 0.0000000000000000000, 1.000000000000000000 ) ) ;
#134 = EDGE_CURVE ( 'NONE', #20, #137, #12, .T. ) ;
#135 = CARTESIAN_POINT ( 'NONE',  ( -7.500000000000000000, 0.0000000000000000000, 1.000000000000000000 ) ) ;
#136 = PERSON_AND_ORGANIZATION_ROLE ( 'classification_officer' ) ;
#137 = VERTEX_POINT ( 'NONE', #135 ) ;
#138 = ORIENTED_EDGE ( 'NONE', *, *, #56, .F. ) ;
#139 = FACE_OUTER_BOUND ( 'NONE', #115, .T. ) ;
#140 = CC_DESIGN_PERSON_AND_ORGANIZATION_ASSIGNMENT ( #72, #136, ( #73 ) ) ;
#141 = PERSON_AND_ORGANIZATION ( #111, #102 ) ;
#142 = DATE_AND_TIME ( #4, #49 ) ;
#143 = CARTESIAN_POINT ( 'NONE',  ( 0.0000000000000000000, 0.0000000000000000000, 1.000000000000000000 ) ) ;
#144 = CARTESIAN_POINT ( 'NONE',  ( -7.500000000000000000, 0.0000000000000000000, -1.000000000000000000 ) ) ;
#145 = DIRECTION ( 'NONE',  ( -1.000000000000000000, 0.0000000000000000000, 0.0000000000000000000 ) ) ;
#146 = DATE_AND_TIME ( #97, #6 ) ;
#147 = DIRECTION ( 'NONE',  ( -0.0000000000000000000, -0.0000000000000000000, -1.000000000000000000 ) ) ;
#148 = CARTESIAN_POINT ( 'NONE',  ( 0.0000000000000000000, 0.0000000000000000000, 1.000000000000000000 ) ) ;
#149 = LINE ( 'NONE', #117, #69 ) ;
#150 = CLOSED_SHELL ( 'NONE', ( #163, #55, #96, #126 ) ) ;
#151 = DATE_AND_TIME ( #122, #18 ) ;
#152 = CC_DESIGN_SECURITY_CLASSIFICATION ( #73, ( #17 ) ) ;
#153 = CARTESIAN_POINT ( 'NONE',  ( 7.500000000000000000, 9.184850993605147944E-16, -1.000000000000000000 ) ) ;
#154 = VERTEX_POINT ( 'NONE', #144 ) ;
#155 = AXIS2_PLACEMENT_3D ( 'NONE', #119, #158, #51 ) ;
#156 = CC_DESIGN_PERSON_AND_ORGANIZATION_ASSIGNMENT ( #141, #160, ( #17 ) ) ;
#157 = EDGE_CURVE ( 'NONE', #22, #154, #79, .T. ) ;
#158 = DIRECTION ( 'NONE',  ( 0.0000000000000000000, 0.0000000000000000000, 1.000000000000000000 ) ) ;
#159 = COORDINATED_UNIVERSAL_TIME_OFFSET ( 5, 0, .BEHIND. ) ;
#160 = PERSON_AND_ORGANIZATION_ROLE ( 'creator' ) ;
#161 = ORIENTED_EDGE ( 'NONE', *, *, #56, .T. ) ;
#162 = DIRECTION ( 'NONE',  ( 1.000000000000000000, 0.0000000000000000000, 0.0000000000000000000 ) ) ;
#163 = ADVANCED_FACE ( 'NONE', ( #113 ), #50, .T. ) ;
#164 = PRODUCT_DEFINITION ( 'UNKNOWN', '', #17, #19 ) ;
#165 = AXIS2_PLACEMENT_3D ( 'NONE', #148, #147, #145 ) ;
#166 = PERSON_AND_ORGANIZATION ( #111, #102 ) ;
#167 = PRODUCT_RELATED_PRODUCT_CATEGORY ( 'detail', '', ( #76 ) ) ;
#168 = DIRECTION ( 'NONE',  ( -0.0000000000000000000, -0.0000000000000000000, -1.000000000000000000 ) ) ;
#169 = EDGE_CURVE ( 'NONE', #137, #20, #14, .T. ) ;
#170 = DIRECTION ( 'NONE',  ( 0.0000000000000000000, 0.0000000000000000000, 1.000000000000000000 ) ) ;
#171 = APPROVAL_STATUS ( 'not_yet_approved' ) ;
#172 = DIRECTION ( 'NONE',  ( 0.0000000000000000000, 0.0000000000000000000, 1.000000000000000000 ) ) ;
#173 = DATE_TIME_ROLE ( 'classification_date' ) ;
#174 = DIRECTION ( 'NONE',  ( 1.000000000000000000, 0.0000000000000000000, 0.0000000000000000000 ) ) ;
#175 = APPROVAL ( #171, 'UNSPECIFIED' ) ;
ENDSEC;
END-ISO-10303-21;
