ISO-10303-21;
HEADER;
FILE_DESCRIPTION (( 'STEP AP203' ),
    '1' );
FILE_NAME ('Web Model 66194.STEP',
    '2017-01-31T19:35:45',
    ( '' ),
    ( '' ),
    'SwSTEP 2.0',
    'SolidWorks 2016',
    '' );
FILE_SCHEMA (( 'CONFIG_CONTROL_DESIGN' ));
ENDSEC;

DATA;
#1 = DIRECTION ( 'NONE',  ( 0.0000000000000000000, 0.0000000000000000000, 1.000000000000000000 ) ) ;
#2 = CARTESIAN_POINT ( 'NONE',  ( 0.0000000000000000000, 0.0000000000000000000, 0.2000000000000000100 ) ) ;
#3 = DATE_AND_TIME ( #77, #150 ) ;
#4 = APPLICATION_PROTOCOL_DEFINITION ( 'international standard', 'config_control_design', 1994, #55 ) ;
#5 = DATE_AND_TIME ( #24, #133 ) ;
#6 = EDGE_LOOP ( 'NONE', ( #106, #98 ) ) ;
#7 = CC_DESIGN_DATE_AND_TIME_ASSIGNMENT ( #5, #168, ( #15 ) ) ;
#8 = EDGE_CURVE ( 'NONE', #54, #78, #130, .T. ) ;
#9 = APPROVAL ( #19, 'UNSPECIFIED' ) ;
#10 = PERSON_AND_ORGANIZATION ( #88, #25 ) ;
#11 = PERSON_AND_ORGANIZATION ( #88, #25 ) ;
#12 = APPROVAL_PERSON_ORGANIZATION ( #134, #27, #51 ) ;
#13 = DIRECTION ( 'NONE',  ( -0.0000000000000000000, -0.0000000000000000000, -1.000000000000000000 ) ) ;
#14 = CARTESIAN_POINT ( 'NONE',  ( 6.250000000000000000, 7.654042494670957600E-016, 0.2000000000000000100 ) ) ;
#15 = PRODUCT_DEFINITION ( 'UNKNOWN', '', #86, #36 ) ;
#16 = CARTESIAN_POINT ( 'NONE',  ( -6.250000000000000000, 0.0000000000000000000, 0.2000000000000000100 ) ) ;
#17 = ORIENTED_EDGE ( 'NONE', *, *, #64, .T. ) ;
#18 =( LENGTH_UNIT ( ) NAMED_UNIT ( * ) SI_UNIT ( .MILLI., .METRE. ) );
#19 = APPROVAL_STATUS ( 'not_yet_approved' ) ;
#20 = DATE_AND_TIME ( #119, #149 ) ;
#21 = ADVANCED_FACE ( 'NONE', ( #147 ), #62, .T. ) ;
#22 = MECHANICAL_CONTEXT ( 'NONE', #80, 'mechanical' ) ;
#23 = AXIS2_PLACEMENT_3D ( 'NONE', #94, #45, #79 ) ;
#24 = CALENDAR_DATE ( 2017, 31, 1 ) ;
#25 = ORGANIZATION ( 'UNSPECIFIED', 'UNSPECIFIED', '' ) ;
#26 = ORIENTED_EDGE ( 'NONE', *, *, #43, .T. ) ;
#27 = APPROVAL ( #146, 'UNSPECIFIED' ) ;
#28 = CC_DESIGN_APPROVAL ( #9, ( #151 ) ) ;
#29 = DIRECTION ( 'NONE',  ( 0.0000000000000000000, 0.0000000000000000000, 1.000000000000000000 ) ) ;
#30 = MANIFOLD_SOLID_BREP ( 'Extrude1', #118 ) ;
#31 = CARTESIAN_POINT ( 'NONE',  ( 0.0000000000000000000, 0.0000000000000000000, 0.2000000000000000100 ) ) ;
#32 = CARTESIAN_POINT ( 'NONE',  ( 0.0000000000000000000, 0.0000000000000000000, 0.2000000000000000100 ) ) ;
#33 = CC_DESIGN_PERSON_AND_ORGANIZATION_ASSIGNMENT ( #66, #117, ( #86 ) ) ;
#34 = CARTESIAN_POINT ( 'NONE',  ( -6.250000000000000000, 0.0000000000000000000, 0.0000000000000000000 ) ) ;
#35 = ADVANCED_FACE ( 'NONE', ( #67 ), #84, .T. ) ;
#36 = DESIGN_CONTEXT ( 'detailed design', #55, 'design' ) ;
#37 = ORIENTED_EDGE ( 'NONE', *, *, #101, .F. ) ;
#38 = DATE_TIME_ROLE ( 'classification_date' ) ;
#39 = CIRCLE ( 'NONE', #148, 6.250000000000000000 ) ;
#40 = PRODUCT_RELATED_PRODUCT_CATEGORY ( 'detail', '', ( #135 ) ) ;
#41 = CIRCLE ( 'NONE', #85, 6.250000000000000000 ) ;
#42 = CALENDAR_DATE ( 2017, 31, 1 ) ;
#43 = EDGE_CURVE ( 'NONE', #78, #54, #171, .T. ) ;
#44 = CARTESIAN_POINT ( 'NONE',  ( 0.0000000000000000000, 0.0000000000000000000, 0.0000000000000000000 ) ) ;
#45 = DIRECTION ( 'NONE',  ( 0.0000000000000000000, 0.0000000000000000000, 1.000000000000000000 ) ) ;
#46 = CC_DESIGN_DATE_AND_TIME_ASSIGNMENT ( #3, #38, ( #151 ) ) ;
#47 = DIRECTION ( 'NONE',  ( -1.000000000000000000, 0.0000000000000000000, 0.0000000000000000000 ) ) ;
#48 =( NAMED_UNIT ( * ) PLANE_ANGLE_UNIT ( ) SI_UNIT ( $, .RADIAN. ) );
#49 = COORDINATED_UNIVERSAL_TIME_OFFSET ( 5, 0, .BEHIND. ) ;
#50 = APPLICATION_PROTOCOL_DEFINITION ( 'international standard', 'config_control_design', 1994, #80 ) ;
#51 = APPROVAL_ROLE ( '' ) ;
#52 =( GEOMETRIC_REPRESENTATION_CONTEXT ( 3 ) GLOBAL_UNCERTAINTY_ASSIGNED_CONTEXT ( ( #172 ) ) GLOBAL_UNIT_ASSIGNED_CONTEXT ( ( #18, #48, #116 ) ) REPRESENTATION_CONTEXT ( 'NONE', 'WORKASPACE' ) );
#53 = CARTESIAN_POINT ( 'NONE',  ( 0.0000000000000000000, 0.0000000000000000000, 0.0000000000000000000 ) ) ;
#54 = VERTEX_POINT ( 'NONE', #34 ) ;
#55 = APPLICATION_CONTEXT ( 'configuration controlled 3d designs of mechanical parts and assemblies' ) ;
#56 = AXIS2_PLACEMENT_3D ( 'NONE', #63, #1, #103 ) ;
#57 = DATE_AND_TIME ( #97, #124 ) ;
#58 = CC_DESIGN_APPROVAL ( #27, ( #15 ) ) ;
#59 = ORIENTED_EDGE ( 'NONE', *, *, #101, .T. ) ;
#60 = PERSON_AND_ORGANIZATION ( #88, #25 ) ;
#61 = FACE_OUTER_BOUND ( 'NONE', #6, .T. ) ;
#62 = PLANE ( 'NONE',  #123 ) ;
#63 = CARTESIAN_POINT ( 'NONE',  ( 0.0000000000000000000, 0.0000000000000000000, 0.0000000000000000000 ) ) ;
#64 = EDGE_CURVE ( 'NONE', #92, #153, #39, .T. ) ;
#65 = DIRECTION ( 'NONE',  ( 0.0000000000000000000, 0.0000000000000000000, 1.000000000000000000 ) ) ;
#66 = PERSON_AND_ORGANIZATION ( #88, #25 ) ;
#67 = FACE_OUTER_BOUND ( 'NONE', #175, .T. ) ;
#68 = PERSON_AND_ORGANIZATION_ROLE ( 'design_owner' ) ;
#69 = PERSON_AND_ORGANIZATION_ROLE ( 'design_supplier' ) ;
#70 = ORIENTED_EDGE ( 'NONE', *, *, #137, .T. ) ;
#71 = LINE ( 'NONE', #154, #138 ) ;
#72 = AXIS2_PLACEMENT_3D ( 'NONE', #44, #29, #157 ) ;
#73 = FACE_OUTER_BOUND ( 'NONE', #121, .T. ) ;
#74 = EDGE_CURVE ( 'NONE', #153, #92, #41, .T. ) ;
#75 = LOCAL_TIME ( 14, 35, 45.00000000000000000, #49 ) ;
#76 = CARTESIAN_POINT ( 'NONE',  ( 0.0000000000000000000, 0.0000000000000000000, 0.2000000000000000100 ) ) ;
#77 = CALENDAR_DATE ( 2017, 31, 1 ) ;
#78 = VERTEX_POINT ( 'NONE', #155 ) ;
#79 = DIRECTION ( 'NONE',  ( 1.000000000000000000, 0.0000000000000000000, 0.0000000000000000000 ) ) ;
#80 = APPLICATION_CONTEXT ( 'configuration controlled 3d designs of mechanical parts and assemblies' ) ;
#81 = PERSON_AND_ORGANIZATION_ROLE ( 'classification_officer' ) ;
#82 = ADVANCED_FACE ( 'NONE', ( #61 ), #114, .F. ) ;
#83 = PERSON_AND_ORGANIZATION_ROLE ( 'creator' ) ;
#84 = CYLINDRICAL_SURFACE ( 'NONE', #132, 6.250000000000000000 ) ;
#85 = AXIS2_PLACEMENT_3D ( 'NONE', #2, #105, #139 ) ;
#86 = PRODUCT_DEFINITION_FORMATION_WITH_SPECIFIED_SOURCE ( 'ANY', '', #135, .NOT_KNOWN. ) ;
#87 = COORDINATED_UNIVERSAL_TIME_OFFSET ( 5, 0, .BEHIND. ) ;
#88 = PERSON ( 'UNSPECIFIED', 'UNSPECIFIED', 'UNSPECIFIED', ('UNSPECIFIED'), ('UNSPECIFIED'), ('UNSPECIFIED') ) ;
#89 = ORIENTED_EDGE ( 'NONE', *, *, #64, .F. ) ;
#90 = APPROVAL_DATE_TIME ( #20, #9 ) ;
#91 = DIRECTION ( 'NONE',  ( -0.0000000000000000000, -0.0000000000000000000, -1.000000000000000000 ) ) ;
#92 = VERTEX_POINT ( 'NONE', #16 ) ;
#93 = CARTESIAN_POINT ( 'NONE',  ( -6.250000000000000000, 0.0000000000000000000, 0.2000000000000000100 ) ) ;
#94 = CARTESIAN_POINT ( 'NONE',  ( 0.0000000000000000000, 0.0000000000000000000, 0.0000000000000000000 ) ) ;
#95 = APPROVAL_PERSON_ORGANIZATION ( #10, #122, #108 ) ;
#96 = APPROVAL_STATUS ( 'not_yet_approved' ) ;
#97 = CALENDAR_DATE ( 2017, 31, 1 ) ;
#98 = ORIENTED_EDGE ( 'NONE', *, *, #43, .F. ) ;
#99 = PERSON_AND_ORGANIZATION ( #88, #25 ) ;
#100 = ORIENTED_EDGE ( 'NONE', *, *, #8, .T. ) ;
#101 = EDGE_CURVE ( 'NONE', #153, #78, #71, .T. ) ;
#102 = DATE_AND_TIME ( #42, #75 ) ;
#103 = DIRECTION ( 'NONE',  ( 1.000000000000000000, 0.0000000000000000000, -0.0000000000000000000 ) ) ;
#104 = ADVANCED_BREP_SHAPE_REPRESENTATION ( 'Web Model 66194', ( #30, #115 ), #52 ) ;
#105 = DIRECTION ( 'NONE',  ( 0.0000000000000000000, 0.0000000000000000000, 1.000000000000000000 ) ) ;
#106 = ORIENTED_EDGE ( 'NONE', *, *, #8, .F. ) ;
#107 = DIRECTION ( 'NONE',  ( -0.0000000000000000000, -0.0000000000000000000, -1.000000000000000000 ) ) ;
#108 = APPROVAL_ROLE ( '' ) ;
#109 = PERSON_AND_ORGANIZATION ( #88, #25 ) ;
#110 = ORIENTED_EDGE ( 'NONE', *, *, #74, .T. ) ;
#111 = ORIENTED_EDGE ( 'NONE', *, *, #137, .F. ) ;
#112 = ORIENTED_EDGE ( 'NONE', *, *, #74, .F. ) ;
#113 = PRODUCT_DEFINITION_SHAPE ( 'NONE', 'NONE',  #15 ) ;
#114 = PLANE ( 'NONE',  #56 ) ;
#115 = AXIS2_PLACEMENT_3D ( 'NONE', #53, #129, #143 ) ;
#116 =( NAMED_UNIT ( * ) SI_UNIT ( $, .STERADIAN. ) SOLID_ANGLE_UNIT ( ) );
#117 = PERSON_AND_ORGANIZATION_ROLE ( 'creator' ) ;
#118 = CLOSED_SHELL ( 'NONE', ( #159, #35, #21, #82 ) ) ;
#119 = CALENDAR_DATE ( 2017, 31, 1 ) ;
#120 = CC_DESIGN_SECURITY_CLASSIFICATION ( #151, ( #86 ) ) ;
#121 = EDGE_LOOP ( 'NONE', ( #112, #59, #26, #111 ) ) ;
#122 = APPROVAL ( #96, 'UNSPECIFIED' ) ;
#123 = AXIS2_PLACEMENT_3D ( 'NONE', #76, #65, #167 ) ;
#124 = LOCAL_TIME ( 14, 35, 45.00000000000000000, #164 ) ;
#125 = DIRECTION ( 'NONE',  ( -1.000000000000000000, 0.0000000000000000000, 0.0000000000000000000 ) ) ;
#126 = DIRECTION ( 'NONE',  ( 1.000000000000000000, 0.0000000000000000000, 0.0000000000000000000 ) ) ;
#127 = CC_DESIGN_APPROVAL ( #122, ( #86 ) ) ;
#128 = DIRECTION ( 'NONE',  ( 0.0000000000000000000, 0.0000000000000000000, 1.000000000000000000 ) ) ;
#129 = DIRECTION ( 'NONE',  ( 0.0000000000000000000, 0.0000000000000000000, 1.000000000000000000 ) ) ;
#130 = CIRCLE ( 'NONE', #72, 6.250000000000000000 ) ;
#131 = CYLINDRICAL_SURFACE ( 'NONE', #145, 6.250000000000000000 ) ;
#132 = AXIS2_PLACEMENT_3D ( 'NONE', #31, #91, #125 ) ;
#133 = LOCAL_TIME ( 14, 35, 45.00000000000000000, #162 ) ;
#134 = PERSON_AND_ORGANIZATION ( #88, #25 ) ;
#135 = PRODUCT ( 'Web Model 66194', 'Web Model 66194', '', ( #22 ) ) ;
#136 = SHAPE_DEFINITION_REPRESENTATION ( #113, #104 ) ;
#137 = EDGE_CURVE ( 'NONE', #92, #54, #166, .T. ) ;
#138 = VECTOR ( 'NONE', #165, 1000.000000000000000 ) ;
#139 = DIRECTION ( 'NONE',  ( 1.000000000000000000, 0.0000000000000000000, 0.0000000000000000000 ) ) ;
#140 = CARTESIAN_POINT ( 'NONE',  ( 0.0000000000000000000, 0.0000000000000000000, 0.2000000000000000100 ) ) ;
#141 = CC_DESIGN_PERSON_AND_ORGANIZATION_ASSIGNMENT ( #169, #68, ( #135 ) ) ;
#142 = CC_DESIGN_PERSON_AND_ORGANIZATION_ASSIGNMENT ( #99, #69, ( #86 ) ) ;
#143 = DIRECTION ( 'NONE',  ( 1.000000000000000000, 0.0000000000000000000, 0.0000000000000000000 ) ) ;
#144 = APPROVAL_ROLE ( '' ) ;
#145 = AXIS2_PLACEMENT_3D ( 'NONE', #140, #13, #47 ) ;
#146 = APPROVAL_STATUS ( 'not_yet_approved' ) ;
#147 = FACE_OUTER_BOUND ( 'NONE', #170, .T. ) ;
#148 = AXIS2_PLACEMENT_3D ( 'NONE', #32, #128, #126 ) ;
#149 = LOCAL_TIME ( 14, 35, 45.00000000000000000, #87 ) ;
#150 = LOCAL_TIME ( 14, 35, 45.00000000000000000, #152 ) ;
#151 = SECURITY_CLASSIFICATION ( '', '', #161 ) ;
#152 = COORDINATED_UNIVERSAL_TIME_OFFSET ( 5, 0, .BEHIND. ) ;
#153 = VERTEX_POINT ( 'NONE', #14 ) ;
#154 = CARTESIAN_POINT ( 'NONE',  ( 6.250000000000000000, 7.654042494670957600E-016, 0.2000000000000000100 ) ) ;
#155 = CARTESIAN_POINT ( 'NONE',  ( 6.250000000000000000, 7.654042494670957600E-016, 0.0000000000000000000 ) ) ;
#156 = CC_DESIGN_PERSON_AND_ORGANIZATION_ASSIGNMENT ( #11, #83, ( #15 ) ) ;
#157 = DIRECTION ( 'NONE',  ( 1.000000000000000000, 0.0000000000000000000, 0.0000000000000000000 ) ) ;
#158 = APPROVAL_PERSON_ORGANIZATION ( #60, #9, #144 ) ;
#159 = ADVANCED_FACE ( 'NONE', ( #73 ), #131, .T. ) ;
#160 = APPROVAL_DATE_TIME ( #57, #27 ) ;
#161 = SECURITY_CLASSIFICATION_LEVEL ( 'unclassified' ) ;
#162 = COORDINATED_UNIVERSAL_TIME_OFFSET ( 5, 0, .BEHIND. ) ;
#163 = APPROVAL_DATE_TIME ( #102, #122 ) ;
#164 = COORDINATED_UNIVERSAL_TIME_OFFSET ( 5, 0, .BEHIND. ) ;
#165 = DIRECTION ( 'NONE',  ( -0.0000000000000000000, -0.0000000000000000000, -1.000000000000000000 ) ) ;
#166 = LINE ( 'NONE', #93, #173 ) ;
#167 = DIRECTION ( 'NONE',  ( 1.000000000000000000, 0.0000000000000000000, -0.0000000000000000000 ) ) ;
#168 = DATE_TIME_ROLE ( 'creation_date' ) ;
#169 = PERSON_AND_ORGANIZATION ( #88, #25 ) ;
#170 = EDGE_LOOP ( 'NONE', ( #17, #110 ) ) ;
#171 = CIRCLE ( 'NONE', #23, 6.250000000000000000 ) ;
#172 = UNCERTAINTY_MEASURE_WITH_UNIT (LENGTH_MEASURE( 1.000000000000000100E-005 ), #18, 'distance_accuracy_value', 'NONE');
#173 = VECTOR ( 'NONE', #107, 1000.000000000000000 ) ;
#174 = CC_DESIGN_PERSON_AND_ORGANIZATION_ASSIGNMENT ( #109, #81, ( #151 ) ) ;
#175 = EDGE_LOOP ( 'NONE', ( #37, #89, #70, #100 ) ) ;
ENDSEC;
END-ISO-10303-21;
