ISO-10303-21;
HEADER;
FILE_DESCRIPTION (( 'STEP AP203' ),
    '1' );
FILE_NAME ('4269-E0W.STEP',
    '2015-05-29T14:18:51',
    ( 'admin' ),
    ( '' ),
    'SwSTEP 2.0',
    'SolidWorks 2014',
    '' );
FILE_SCHEMA (( 'CONFIG_CONTROL_DESIGN' ));
ENDSEC;

DATA;
#1 = APPLICATION_CONTEXT ( 'configuration controlled 3d designs of mechanical parts and assemblies' ) ;
#2 = LINE ( 'NONE', #280, #239 ) ;
#3 = CALENDAR_DATE ( 2015, 29, 5 ) ;
#4 = COORDINATED_UNIVERSAL_TIME_OFFSET ( 5, 0, .BEHIND. ) ;
#5 = DIRECTION ( 'NONE',  ( 0.0000000000000000000, 0.0000000000000000000, 1.000000000000000000 ) ) ;
#6 = EDGE_CURVE ( 'NONE', #63, #82, #68, .T. ) ;
#7 = VERTEX_POINT ( 'NONE', #122 ) ;
#8 = CARTESIAN_POINT ( 'NONE',  ( 0.1499999999999965000, 0.0000000000000000000, 0.0000000000000000000 ) ) ;
#9 = ORGANIZATION ( 'UNSPECIFIED', 'UNSPECIFIED', '' ) ;
#10 = ORIENTED_EDGE ( 'NONE', *, *, #242, .F. ) ;
#11 = PRODUCT_RELATED_PRODUCT_CATEGORY ( 'detail', '', ( #245 ) ) ;
#12 = CONICAL_SURFACE ( 'NONE', #181, 3.000000000000000000, 0.5582183933261701800 ) ;
#13 = CIRCLE ( 'NONE', #194, 3.000000000000000000 ) ;
#14 = AXIS2_PLACEMENT_3D ( 'NONE', #267, #274, #215 ) ;
#15 = FACE_OUTER_BOUND ( 'NONE', #209, .T. ) ;
#16 = TOROIDAL_SURFACE ( 'NONE', #99, -0.02831977272865987900, 6.899999999999999500 ) ;
#17 = CC_DESIGN_DATE_AND_TIME_ASSIGNMENT ( #293, #43, ( #62 ) ) ;
#18 = EDGE_CURVE ( 'NONE', #7, #22, #116, .T. ) ;
#19 = AXIS2_PLACEMENT_3D ( 'NONE', #268, #79, #276 ) ;
#20 = EDGE_LOOP ( 'NONE', ( #34, #183, #80, #147 ) ) ;
#21 = DIRECTION ( 'NONE',  ( -1.000000000000000000, -0.0000000000000000000, -0.0000000000000000000 ) ) ;
#22 = VERTEX_POINT ( 'NONE', #156 ) ;
#23 = FACE_OUTER_BOUND ( 'NONE', #286, .T. ) ;
#24 = AXIS2_PLACEMENT_3D ( 'NONE', #132, #158, #296 ) ;
#25 = AXIS2_PLACEMENT_3D ( 'NONE', #192, #251, #189 ) ;
#26 = DIRECTION ( 'NONE',  ( -0.0000000000000000000, 1.000000000000000000, 1.224646799147353200E-016 ) ) ;
#27 = CIRCLE ( 'NONE', #243, 3.000000000000000000 ) ;
#28 = CARTESIAN_POINT ( 'NONE',  ( 0.1499999999999965000, 0.0000000000000000000, 0.0000000000000000000 ) ) ;
#29 = AXIS2_PLACEMENT_3D ( 'NONE', #49, #26, #149 ) ;
#30 = APPLICATION_PROTOCOL_DEFINITION ( 'international standard', 'config_control_design', 1994, #1 ) ;
#31 = CIRCLE ( 'NONE', #213, 6.899999999999999500 ) ;
#32 = UNCERTAINTY_MEASURE_WITH_UNIT (LENGTH_MEASURE( 1.000000000000000100E-005 ), #54, 'distance_accuracy_value', 'NONE');
#33 = PERSON ( 'UNSPECIFIED', 'UNSPECIFIED', 'UNSPECIFIED', ('UNSPECIFIED'), ('UNSPECIFIED'), ('UNSPECIFIED') ) ;
#34 = ORIENTED_EDGE ( 'NONE', *, *, #282, .F. ) ;
#35 = CARTESIAN_POINT ( 'NONE',  ( -1.100000000000000100, 0.0000000000000000000, 0.0000000000000000000 ) ) ;
#36 = DIRECTION ( 'NONE',  ( 0.0000000000000000000, 0.0000000000000000000, -1.000000000000000000 ) ) ;
#37 = CC_DESIGN_PERSON_AND_ORGANIZATION_ASSIGNMENT ( #169, #255, ( #245 ) ) ;
#38 = CARTESIAN_POINT ( 'NONE',  ( 0.5028597474426186300, 0.0000000000000000000, 0.0000000000000000000 ) ) ;
#39 = DIRECTION ( 'NONE',  ( 0.7071067811865469100, 0.0000000000000000000, -0.7071067811865482400 ) ) ;
#40 = CARTESIAN_POINT ( 'NONE',  ( -0.8499999999999998700, 3.673940397442059900E-016, -3.000000000000000000 ) ) ;
#41 = VERTEX_POINT ( 'NONE', #123 ) ;
#42 = PERSON_AND_ORGANIZATION_ROLE ( 'design_supplier' ) ;
#43 = DATE_TIME_ROLE ( 'classification_date' ) ;
#44 = DIRECTION ( 'NONE',  ( 0.0000000000000000000, 0.0000000000000000000, -1.000000000000000000 ) ) ;
#45 = ADVANCED_FACE ( 'NONE', ( #89 ), #121, .T. ) ;
#46 =( NAMED_UNIT ( * ) PLANE_ANGLE_UNIT ( ) SI_UNIT ( $, .RADIAN. ) );
#47 = CARTESIAN_POINT ( 'NONE',  ( 0.1499999999999965000, 3.673940397442059400E-016, -3.000000000000000000 ) ) ;
#48 = APPROVAL ( #224, 'UNSPECIFIED' ) ;
#49 = CARTESIAN_POINT ( 'NONE',  ( -5.799941883122827800, -3.468171902473382400E-018, 0.02831977272865987900 ) ) ;
#50 = DATE_AND_TIME ( #3, #240 ) ;
#51 = CONICAL_SURFACE ( 'NONE', #153, 2.749999999999999600, 0.7853981633974491700 ) ;
#52 = DIRECTION ( 'NONE',  ( 0.0000000000000000000, 0.0000000000000000000, 1.000000000000000000 ) ) ;
#53 = APPLICATION_CONTEXT ( 'configuration controlled 3d designs of mechanical parts and assemblies' ) ;
#54 =( LENGTH_UNIT ( ) NAMED_UNIT ( * ) SI_UNIT ( .MILLI., .METRE. ) );
#55 = CARTESIAN_POINT ( 'NONE',  ( 0.1499999999999965000, 0.0000000000000000000, 3.000000000000000000 ) ) ;
#56 = ADVANCED_BREP_SHAPE_REPRESENTATION ( '4269-E0W', ( #162, #14 ), #198 ) ;
#57 = ORIENTED_EDGE ( 'NONE', *, *, #227, .T. ) ;
#58 = DIRECTION ( 'NONE',  ( -1.000000000000000000, -0.0000000000000000000, -0.0000000000000000000 ) ) ;
#59 = CARTESIAN_POINT ( 'NONE',  ( -1.100000000000000100, 0.0000000000000000000, 0.0000000000000000000 ) ) ;
#60 = CARTESIAN_POINT ( 'NONE',  ( -1.100000000000000100, 0.0000000000000000000, 0.0000000000000000000 ) ) ;
#61 = CARTESIAN_POINT ( 'NONE',  ( -1.100000000000000100, 0.0000000000000000000, 3.000000000000000000 ) ) ;
#62 = SECURITY_CLASSIFICATION ( '', '', #111 ) ;
#63 = VERTEX_POINT ( 'NONE', #234 ) ;
#64 = EDGE_CURVE ( 'NONE', #41, #22, #31, .T. ) ;
#65 = CLOSED_SHELL ( 'NONE', ( #45, #205, #249, #254, #154, #237, #253, #77, #200 ) ) ;
#66 = DIRECTION ( 'NONE',  ( 1.000000000000000000, 0.0000000000000000000, 0.0000000000000000000 ) ) ;
#67 = PERSON_AND_ORGANIZATION ( #33, #9 ) ;
#68 = CIRCLE ( 'NONE', #235, 2.749999999999999600 ) ;
#69 = CC_DESIGN_APPROVAL ( #219, ( #62 ) ) ;
#70 = DIRECTION ( 'NONE',  ( 1.000000000000000000, 0.0000000000000000000, 0.0000000000000000000 ) ) ;
#71 = VERTEX_POINT ( 'NONE', #74 ) ;
#72 = CALENDAR_DATE ( 2015, 29, 5 ) ;
#73 = CC_DESIGN_PERSON_AND_ORGANIZATION_ASSIGNMENT ( #250, #204, ( #135 ) ) ;
#74 = CARTESIAN_POINT ( 'NONE',  ( 0.1499999999999965000, 3.673940397442059900E-016, -3.000000000000000000 ) ) ;
#75 = DIRECTION ( 'NONE',  ( 0.0000000000000000000, 0.0000000000000000000, -1.000000000000000000 ) ) ;
#76 = CARTESIAN_POINT ( 'NONE',  ( -1.100000000000000100, 0.0000000000000000000, 0.0000000000000000000 ) ) ;
#77 = ADVANCED_FACE ( 'NONE', ( #136 ), #12, .T. ) ;
#78 = ORIENTED_EDGE ( 'NONE', *, *, #247, .F. ) ;
#79 = DIRECTION ( 'NONE',  ( 1.000000000000000000, 0.0000000000000000000, 0.0000000000000000000 ) ) ;
#80 = ORIENTED_EDGE ( 'NONE', *, *, #262, .T. ) ;
#81 = CALENDAR_DATE ( 2015, 29, 5 ) ;
#82 = VERTEX_POINT ( 'NONE', #90 ) ;
#83 = PLANE ( 'NONE',  #299 ) ;
#84 = ORIENTED_EDGE ( 'NONE', *, *, #285, .T. ) ;
#85 = CYLINDRICAL_SURFACE ( 'NONE', #106, 3.000000000000000000 ) ;
#86 = CC_DESIGN_PERSON_AND_ORGANIZATION_ASSIGNMENT ( #143, #42, ( #238 ) ) ;
#87 = CC_DESIGN_APPROVAL ( #109, ( #238 ) ) ;
#88 = ORIENTED_EDGE ( 'NONE', *, *, #64, .T. ) ;
#89 = FACE_OUTER_BOUND ( 'NONE', #117, .T. ) ;
#90 = CARTESIAN_POINT ( 'NONE',  ( -1.100000000000000100, 3.520859547548640400E-016, 2.749999999999999600 ) ) ;
#91 = DIRECTION ( 'NONE',  ( 0.0000000000000000000, 0.0000000000000000000, 1.000000000000000000 ) ) ;
#92 = LINE ( 'NONE', #297, #230 ) ;
#93 = CARTESIAN_POINT ( 'NONE',  ( -1.100000000000000100, 0.0000000000000000000, 0.0000000000000000000 ) ) ;
#94 = CC_DESIGN_SECURITY_CLASSIFICATION ( #62, ( #238 ) ) ;
#95 = FACE_OUTER_BOUND ( 'NONE', #256, .T. ) ;
#96 = DIRECTION ( 'NONE',  ( -0.8482001307426997300, 6.486658714371318300E-017, -0.5296758803344429100 ) ) ;
#97 = LOCAL_TIME ( 10, 18, 51.00000000000000000, #4 ) ;
#98 = LOCAL_TIME ( 10, 18, 51.00000000000000000, #221 ) ;
#99 = AXIS2_PLACEMENT_3D ( 'NONE', #223, #124, #152 ) ;
#100 = CARTESIAN_POINT ( 'NONE',  ( -0.8499999999999998700, 0.0000000000000000000, 0.0000000000000000000 ) ) ;
#101 = VECTOR ( 'NONE', #211, 999.9999999999998900 ) ;
#102 = APPROVAL_ROLE ( '' ) ;
#103 = DIRECTION ( 'NONE',  ( 0.0000000000000000000, 0.0000000000000000000, -1.000000000000000000 ) ) ;
#104 = CIRCLE ( 'NONE', #29, 6.899999999999999500 ) ;
#105 = VECTOR ( 'NONE', #96, 999.9999999999998900 ) ;
#106 = AXIS2_PLACEMENT_3D ( 'NONE', #142, #257, #5 ) ;
#107 = APPROVAL_PERSON_ORGANIZATION ( #150, #48, #102 ) ;
#108 = DIRECTION ( 'NONE',  ( 0.0000000000000000000, 0.0000000000000000000, 1.000000000000000000 ) ) ;
#109 = APPROVAL ( #290, 'UNSPECIFIED' ) ;
#110 = LINE ( 'NONE', #265, #101 ) ;
#111 = SECURITY_CLASSIFICATION_LEVEL ( 'unclassified' ) ;
#112 = FACE_OUTER_BOUND ( 'NONE', #20, .T. ) ;
#113 = EDGE_LOOP ( 'NONE', ( #177, #88, #261 ) ) ;
#114 = DIRECTION ( 'NONE',  ( 0.0000000000000000000, 0.0000000000000000000, -1.000000000000000000 ) ) ;
#115 = APPROVAL_ROLE ( '' ) ;
#116 = CIRCLE ( 'NONE', #174, 2.779649530120200700 ) ;
#117 = EDGE_LOOP ( 'NONE', ( #78, #126, #216, #207 ) ) ;
#118 = EDGE_CURVE ( 'NONE', #71, #196, #2, .T. ) ;
#119 = ORIENTED_EDGE ( 'NONE', *, *, #145, .T. ) ;
#120 = VERTEX_POINT ( 'NONE', #55 ) ;
#121 = CONICAL_SURFACE ( 'NONE', #206, 2.749999999999999600, 0.7853981633974491700 ) ;
#122 = CARTESIAN_POINT ( 'NONE',  ( 0.5028597474426186300, 3.404088899813152300E-016, -2.779649530120203800 ) ) ;
#123 = CARTESIAN_POINT ( 'NONE',  ( 1.100000000000000100, 0.0000000000000000000, 0.0000000000000000000 ) ) ;
#124 = DIRECTION ( 'NONE',  ( -1.000000000000000000, -0.0000000000000000000, -0.0000000000000000000 ) ) ;
#125 = TOROIDAL_SURFACE ( 'NONE', #185, -0.02831977272865987900, 6.899999999999999500 ) ;
#126 = ORIENTED_EDGE ( 'NONE', *, *, #282, .T. ) ;
#127 = VECTOR ( 'NONE', #284, 999.9999999999998900 ) ;
#128 = CONICAL_SURFACE ( 'NONE', #24, 3.000000000000000000, 0.5582183933261701800 ) ;
#129 = AXIS2_PLACEMENT_3D ( 'NONE', #35, #157, #292 ) ;
#130 = PERSON_AND_ORGANIZATION_ROLE ( 'creator' ) ;
#131 = FACE_OUTER_BOUND ( 'NONE', #203, .T. ) ;
#132 = CARTESIAN_POINT ( 'NONE',  ( 0.1499999999999965000, 0.0000000000000000000, 0.0000000000000000000 ) ) ;
#133 = CIRCLE ( 'NONE', #291, 3.000000000000000000 ) ;
#134 = CARTESIAN_POINT ( 'NONE',  ( 0.1499999999999965000, 0.0000000000000000000, 0.0000000000000000000 ) ) ;
#135 = PRODUCT_DEFINITION ( 'UNKNOWN', '', #238, #199 ) ;
#136 = FACE_OUTER_BOUND ( 'NONE', #248, .T. ) ;
#137 = VECTOR ( 'NONE', #197, 1000.000000000000000 ) ;
#138 = ORIENTED_EDGE ( 'NONE', *, *, #233, .T. ) ;
#139 = DIRECTION ( 'NONE',  ( 0.0000000000000000000, -1.000000000000000000, 0.0000000000000000000 ) ) ;
#140 = DIRECTION ( 'NONE',  ( 0.0000000000000000000, 0.0000000000000000000, 1.000000000000000000 ) ) ;
#141 =( NAMED_UNIT ( * ) SI_UNIT ( $, .STERADIAN. ) SOLID_ANGLE_UNIT ( ) );
#142 = CARTESIAN_POINT ( 'NONE',  ( -1.100000000000000100, 0.0000000000000000000, 0.0000000000000000000 ) ) ;
#143 = PERSON_AND_ORGANIZATION ( #33, #9 ) ;
#144 = ORIENTED_EDGE ( 'NONE', *, *, #118, .F. ) ;
#145 = EDGE_CURVE ( 'NONE', #22, #120, #110, .T. ) ;
#146 = CYLINDRICAL_SURFACE ( 'NONE', #129, 3.000000000000000000 ) ;
#147 = ORIENTED_EDGE ( 'NONE', *, *, #227, .F. ) ;
#148 = VERTEX_POINT ( 'NONE', #231 ) ;
#149 = DIRECTION ( 'NONE',  ( 0.0000000000000000000, -1.224646799147353200E-016, 1.000000000000000000 ) ) ;
#150 = PERSON_AND_ORGANIZATION ( #33, #9 ) ;
#151 = DIRECTION ( 'NONE',  ( 0.0000000000000000000, 0.0000000000000000000, -1.000000000000000000 ) ) ;
#152 = DIRECTION ( 'NONE',  ( 0.0000000000000000000, 0.0000000000000000000, 1.000000000000000000 ) ) ;
#153 = AXIS2_PLACEMENT_3D ( 'NONE', #59, #217, #151 ) ;
#154 = ADVANCED_FACE ( 'NONE', ( #15 ), #83, .F. ) ;
#155 = DATE_AND_TIME ( #72, #294 ) ;
#156 = CARTESIAN_POINT ( 'NONE',  ( 0.5028597474426186300, 0.0000000000000000000, 2.779649530120203800 ) ) ;
#157 = DIRECTION ( 'NONE',  ( -1.000000000000000000, -0.0000000000000000000, -0.0000000000000000000 ) ) ;
#158 = DIRECTION ( 'NONE',  ( -1.000000000000000000, -0.0000000000000000000, -0.0000000000000000000 ) ) ;
#159 = FACE_OUTER_BOUND ( 'NONE', #178, .T. ) ;
#160 = DIRECTION ( 'NONE',  ( 1.000000000000000000, 0.0000000000000000000, 0.0000000000000000000 ) ) ;
#161 = CC_DESIGN_APPROVAL ( #48, ( #135 ) ) ;
#162 = MANIFOLD_SOLID_BREP ( '4269-001-1-solid1', #65 ) ;
#163 = DIRECTION ( 'NONE',  ( 0.0000000000000000000, 0.0000000000000000000, -1.000000000000000000 ) ) ;
#164 = ORIENTED_EDGE ( 'NONE', *, *, #6, .T. ) ;
#165 = CALENDAR_DATE ( 2015, 29, 5 ) ;
#166 = CIRCLE ( 'NONE', #19, 3.000000000000000000 ) ;
#167 = ORIENTED_EDGE ( 'NONE', *, *, #64, .F. ) ;
#168 = ORIENTED_EDGE ( 'NONE', *, *, #118, .T. ) ;
#169 = PERSON_AND_ORGANIZATION ( #33, #9 ) ;
#170 = CC_DESIGN_DATE_AND_TIME_ASSIGNMENT ( #50, #222, ( #135 ) ) ;
#171 = ORIENTED_EDGE ( 'NONE', *, *, #285, .F. ) ;
#172 = ORIENTED_EDGE ( 'NONE', *, *, #201, .F. ) ;
#173 = CARTESIAN_POINT ( 'NONE',  ( -1.100000000000000100, 0.0000000000000000000, 0.0000000000000000000 ) ) ;
#174 = AXIS2_PLACEMENT_3D ( 'NONE', #38, #70, #91 ) ;
#175 = DIRECTION ( 'NONE',  ( -1.000000000000000000, -0.0000000000000000000, -0.0000000000000000000 ) ) ;
#176 = COORDINATED_UNIVERSAL_TIME_OFFSET ( 5, 0, .BEHIND. ) ;
#177 = ORIENTED_EDGE ( 'NONE', *, *, #233, .F. ) ;
#178 = EDGE_LOOP ( 'NONE', ( #244, #225, #171, #272 ) ) ;
#179 = APPROVAL_ROLE ( '' ) ;
#180 = APPROVAL_STATUS ( 'not_yet_approved' ) ;
#181 = AXIS2_PLACEMENT_3D ( 'NONE', #28, #21, #108 ) ;
#182 = DIRECTION ( 'NONE',  ( -1.000000000000000000, -0.0000000000000000000, -0.0000000000000000000 ) ) ;
#183 = ORIENTED_EDGE ( 'NONE', *, *, #6, .F. ) ;
#184 = ORIENTED_EDGE ( 'NONE', *, *, #229, .F. ) ;
#185 = AXIS2_PLACEMENT_3D ( 'NONE', #228, #175, #140 ) ;
#186 = EDGE_CURVE ( 'NONE', #71, #120, #27, .T. ) ;
#187 = CC_DESIGN_PERSON_AND_ORGANIZATION_ASSIGNMENT ( #273, #202, ( #62 ) ) ;
#188 = AXIS2_PLACEMENT_3D ( 'NONE', #76, #182, #75 ) ;
#189 = DIRECTION ( 'NONE',  ( 0.0000000000000000000, 0.0000000000000000000, 1.000000000000000000 ) ) ;
#190 = ORIENTED_EDGE ( 'NONE', *, *, #247, .T. ) ;
#191 = SHAPE_DEFINITION_REPRESENTATION ( #214, #56 ) ;
#192 = CARTESIAN_POINT ( 'NONE',  ( 0.5028597474426186300, 0.0000000000000000000, 0.0000000000000000000 ) ) ;
#193 = APPROVAL_PERSON_ORGANIZATION ( #258, #219, #115 ) ;
#194 = AXIS2_PLACEMENT_3D ( 'NONE', #8, #195, #266 ) ;
#195 = DIRECTION ( 'NONE',  ( -1.000000000000000000, -0.0000000000000000000, -0.0000000000000000000 ) ) ;
#196 = VERTEX_POINT ( 'NONE', #40 ) ;
#197 = DIRECTION ( 'NONE',  ( -1.000000000000000000, -0.0000000000000000000, -0.0000000000000000000 ) ) ;
#198 =( GEOMETRIC_REPRESENTATION_CONTEXT ( 3 ) GLOBAL_UNCERTAINTY_ASSIGNED_CONTEXT ( ( #32 ) ) GLOBAL_UNIT_ASSIGNED_CONTEXT ( ( #54, #46, #141 ) ) REPRESENTATION_CONTEXT ( 'NONE', 'WORKASPACE' ) );
#199 = DESIGN_CONTEXT ( 'detailed design', #53, 'design' ) ;
#200 = ADVANCED_FACE ( 'NONE', ( #112 ), #51, .T. ) ;
#201 = EDGE_CURVE ( 'NONE', #7, #71, #278, .T. ) ;
#202 = PERSON_AND_ORGANIZATION_ROLE ( 'classification_officer' ) ;
#203 = EDGE_LOOP ( 'NONE', ( #144, #220, #298, #57 ) ) ;
#204 = PERSON_AND_ORGANIZATION_ROLE ( 'creator' ) ;
#205 = ADVANCED_FACE ( 'NONE', ( #159 ), #128, .T. ) ;
#206 = AXIS2_PLACEMENT_3D ( 'NONE', #60, #241, #103 ) ;
#207 = ORIENTED_EDGE ( 'NONE', *, *, #262, .F. ) ;
#208 = MECHANICAL_CONTEXT ( 'NONE', #1, 'mechanical' ) ;
#209 = EDGE_LOOP ( 'NONE', ( #164, #190 ) ) ;
#210 = ORIENTED_EDGE ( 'NONE', *, *, #18, .T. ) ;
#211 = DIRECTION ( 'NONE',  ( -0.8482001307426997300, 0.0000000000000000000, 0.5296758803344429100 ) ) ;
#212 = EDGE_CURVE ( 'NONE', #196, #148, #166, .T. ) ;
#213 = AXIS2_PLACEMENT_3D ( 'NONE', #300, #139, #44 ) ;
#214 = PRODUCT_DEFINITION_SHAPE ( 'NONE', 'NONE',  #135 ) ;
#215 = DIRECTION ( 'NONE',  ( 1.000000000000000000, 0.0000000000000000000, 0.0000000000000000000 ) ) ;
#216 = ORIENTED_EDGE ( 'NONE', *, *, #212, .F. ) ;
#217 = DIRECTION ( 'NONE',  ( 1.000000000000000000, 0.0000000000000000000, 0.0000000000000000000 ) ) ;
#218 = FACE_OUTER_BOUND ( 'NONE', #113, .T. ) ;
#219 = APPROVAL ( #180, 'UNSPECIFIED' ) ;
#220 = ORIENTED_EDGE ( 'NONE', *, *, #186, .T. ) ;
#221 = COORDINATED_UNIVERSAL_TIME_OFFSET ( 5, 0, .BEHIND. ) ;
#222 = DATE_TIME_ROLE ( 'creation_date' ) ;
#223 = CARTESIAN_POINT ( 'NONE',  ( -5.799941883122827800, 0.0000000000000000000, 0.0000000000000000000 ) ) ;
#224 = APPROVAL_STATUS ( 'not_yet_approved' ) ;
#225 = ORIENTED_EDGE ( 'NONE', *, *, #201, .T. ) ;
#226 = LINE ( 'NONE', #275, #127 ) ;
#227 = EDGE_CURVE ( 'NONE', #148, #196, #133, .T. ) ;
#228 = CARTESIAN_POINT ( 'NONE',  ( -5.799941883122827800, 0.0000000000000000000, 0.0000000000000000000 ) ) ;
#229 = EDGE_CURVE ( 'NONE', #120, #148, #287, .T. ) ;
#230 = VECTOR ( 'NONE', #39, 999.9999999999998900 ) ;
#231 = CARTESIAN_POINT ( 'NONE',  ( -0.8499999999999998700, 0.0000000000000000000, 3.000000000000000000 ) ) ;
#232 = CC_DESIGN_PERSON_AND_ORGANIZATION_ASSIGNMENT ( #279, #130, ( #238 ) ) ;
#233 = EDGE_CURVE ( 'NONE', #41, #7, #104, .T. ) ;
#234 = CARTESIAN_POINT ( 'NONE',  ( -1.100000000000000100, 0.0000000000000000000, -2.749999999999999600 ) ) ;
#235 = AXIS2_PLACEMENT_3D ( 'NONE', #93, #277, #163 ) ;
#236 = APPROVAL_DATE_TIME ( #252, #48 ) ;
#237 = ADVANCED_FACE ( 'NONE', ( #131 ), #146, .T. ) ;
#238 = PRODUCT_DEFINITION_FORMATION_WITH_SPECIFIED_SOURCE ( 'ANY', '', #245, .NOT_KNOWN. ) ;
#239 = VECTOR ( 'NONE', #58, 1000.000000000000000 ) ;
#240 = LOCAL_TIME ( 10, 18, 51.00000000000000000, #246 ) ;
#241 = DIRECTION ( 'NONE',  ( 1.000000000000000000, 0.0000000000000000000, 0.0000000000000000000 ) ) ;
#242 = EDGE_CURVE ( 'NONE', #22, #7, #259, .T. ) ;
#243 = AXIS2_PLACEMENT_3D ( 'NONE', #134, #288, #52 ) ;
#244 = ORIENTED_EDGE ( 'NONE', *, *, #18, .F. ) ;
#245 = PRODUCT ( '4269-E0W', '4269-E0W', '', ( #208 ) ) ;
#246 = COORDINATED_UNIVERSAL_TIME_OFFSET ( 5, 0, .BEHIND. ) ;
#247 = EDGE_CURVE ( 'NONE', #82, #63, #260, .T. ) ;
#248 = EDGE_LOOP ( 'NONE', ( #172, #10, #119, #269 ) ) ;
#249 = ADVANCED_FACE ( 'NONE', ( #95 ), #125, .T. ) ;
#250 = PERSON_AND_ORGANIZATION ( #33, #9 ) ;
#251 = DIRECTION ( 'NONE',  ( 1.000000000000000000, 0.0000000000000000000, 0.0000000000000000000 ) ) ;
#252 = DATE_AND_TIME ( #81, #98 ) ;
#253 = ADVANCED_FACE ( 'NONE', ( #218 ), #16, .T. ) ;
#254 = ADVANCED_FACE ( 'NONE', ( #23 ), #85, .T. ) ;
#255 = PERSON_AND_ORGANIZATION_ROLE ( 'design_owner' ) ;
#256 = EDGE_LOOP ( 'NONE', ( #167, #138, #210 ) ) ;
#257 = DIRECTION ( 'NONE',  ( -1.000000000000000000, -0.0000000000000000000, -0.0000000000000000000 ) ) ;
#258 = PERSON_AND_ORGANIZATION ( #33, #9 ) ;
#259 = CIRCLE ( 'NONE', #25, 2.779649530120200700 ) ;
#260 = CIRCLE ( 'NONE', #188, 2.749999999999999600 ) ;
#261 = ORIENTED_EDGE ( 'NONE', *, *, #242, .T. ) ;
#262 = EDGE_CURVE ( 'NONE', #63, #196, #92, .T. ) ;
#263 = APPLICATION_PROTOCOL_DEFINITION ( 'international standard', 'config_control_design', 1994, #53 ) ;
#264 = ORIENTED_EDGE ( 'NONE', *, *, #212, .T. ) ;
#265 = CARTESIAN_POINT ( 'NONE',  ( 0.1499999999999965000, 0.0000000000000000000, 3.000000000000000000 ) ) ;
#266 = DIRECTION ( 'NONE',  ( 0.0000000000000000000, 0.0000000000000000000, 1.000000000000000000 ) ) ;
#267 = CARTESIAN_POINT ( 'NONE',  ( 0.0000000000000000000, 0.0000000000000000000, 0.0000000000000000000 ) ) ;
#268 = CARTESIAN_POINT ( 'NONE',  ( -0.8499999999999998700, 0.0000000000000000000, 0.0000000000000000000 ) ) ;
#269 = ORIENTED_EDGE ( 'NONE', *, *, #186, .F. ) ;
#270 = APPROVAL_PERSON_ORGANIZATION ( #67, #109, #179 ) ;
#271 = APPROVAL_DATE_TIME ( #155, #219 ) ;
#272 = ORIENTED_EDGE ( 'NONE', *, *, #145, .F. ) ;
#273 = PERSON_AND_ORGANIZATION ( #33, #9 ) ;
#274 = DIRECTION ( 'NONE',  ( 0.0000000000000000000, 0.0000000000000000000, 1.000000000000000000 ) ) ;
#275 = CARTESIAN_POINT ( 'NONE',  ( -1.100000000000000100, 3.367778697655220500E-016, 2.749999999999999600 ) ) ;
#276 = DIRECTION ( 'NONE',  ( 0.0000000000000000000, 0.0000000000000000000, -1.000000000000000000 ) ) ;
#277 = DIRECTION ( 'NONE',  ( -1.000000000000000000, -0.0000000000000000000, -0.0000000000000000000 ) ) ;
#278 = LINE ( 'NONE', #47, #105 ) ;
#279 = PERSON_AND_ORGANIZATION ( #33, #9 ) ;
#280 = CARTESIAN_POINT ( 'NONE',  ( -1.100000000000000100, 3.673940397442059900E-016, -3.000000000000000000 ) ) ;
#281 = DATE_AND_TIME ( #165, #97 ) ;
#282 = EDGE_CURVE ( 'NONE', #82, #148, #226, .T. ) ;
#283 = APPROVAL_DATE_TIME ( #281, #109 ) ;
#284 = DIRECTION ( 'NONE',  ( 0.7071067811865469100, 8.659560562354941500E-017, 0.7071067811865482400 ) ) ;
#285 = EDGE_CURVE ( 'NONE', #120, #71, #13, .T. ) ;
#286 = EDGE_LOOP ( 'NONE', ( #84, #168, #264, #184 ) ) ;
#287 = LINE ( 'NONE', #61, #137 ) ;
#288 = DIRECTION ( 'NONE',  ( -1.000000000000000000, -0.0000000000000000000, -0.0000000000000000000 ) ) ;
#289 = COORDINATED_UNIVERSAL_TIME_OFFSET ( 5, 0, .BEHIND. ) ;
#290 = APPROVAL_STATUS ( 'not_yet_approved' ) ;
#291 = AXIS2_PLACEMENT_3D ( 'NONE', #100, #66, #36 ) ;
#292 = DIRECTION ( 'NONE',  ( 0.0000000000000000000, 0.0000000000000000000, 1.000000000000000000 ) ) ;
#293 = DATE_AND_TIME ( #295, #301 ) ;
#294 = LOCAL_TIME ( 10, 18, 51.00000000000000000, #289 ) ;
#295 = CALENDAR_DATE ( 2015, 29, 5 ) ;
#296 = DIRECTION ( 'NONE',  ( 0.0000000000000000000, 0.0000000000000000000, 1.000000000000000000 ) ) ;
#297 = CARTESIAN_POINT ( 'NONE',  ( -1.100000000000000100, 0.0000000000000000000, -2.749999999999999600 ) ) ;
#298 = ORIENTED_EDGE ( 'NONE', *, *, #229, .T. ) ;
#299 = AXIS2_PLACEMENT_3D ( 'NONE', #173, #160, #114 ) ;
#300 = CARTESIAN_POINT ( 'NONE',  ( -5.799941883122827800, 0.0000000000000000000, -0.02831977272865987900 ) ) ;
#301 = LOCAL_TIME ( 10, 18, 51.00000000000000000, #176 ) ;
ENDSEC;
END-ISO-10303-21;
