ISO-10303-21;
HEADER;
FILE_DESCRIPTION (( 'STEP AP203' ),
    '1' );
FILE_NAME ('Web Model 68523_17198.step',
    '2021-04-14T19:37:13',
    ( '' ),
    ( '' ),
    'SwSTEP 2.0',
    'SolidWorks 2018',
    '' );
FILE_SCHEMA (( 'CONFIG_CONTROL_DESIGN' ));
ENDSEC;

DATA;
#1 = CARTESIAN_POINT ( 'NONE',  ( 0.000000000000000000, 0.000000000000000000, 0.000000000000000000 ) ) ;
#2 = CALENDAR_DATE ( 2021, 14, 4 ) ;
#3 =( NAMED_UNIT ( * ) PLANE_ANGLE_UNIT ( ) SI_UNIT ( $, .RADIAN. ) );
#4 = APPROVAL_ROLE ( '' ) ;
#5 = EDGE_CURVE ( 'NONE', #46, #20, #36, .T. ) ;
#6 = EDGE_LOOP ( 'NONE', ( #138, #154, #91, #160 ) ) ;
#7 = CC_DESIGN_APPROVAL ( #173, ( #168 ) ) ;
#8 = PERSON_AND_ORGANIZATION ( #109, #169 ) ;
#9 = FACE_OUTER_BOUND ( 'NONE', #71, .T. ) ;
#10 = CC_DESIGN_PERSON_AND_ORGANIZATION_ASSIGNMENT ( #159, #69, ( #131 ) ) ;
#11 = AXIS2_PLACEMENT_3D ( 'NONE', #1, #167, #27 ) ;
#12 = CARTESIAN_POINT ( 'NONE',  ( 0.000000000000000000, 0.000000000000000000, -12.50000000000000000 ) ) ;
#13 = DIRECTION ( 'NONE',  ( 0.000000000000000000, 0.000000000000000000, 1.000000000000000000 ) ) ;
#14 = MECHANICAL_CONTEXT ( 'NONE', #148, 'mechanical' ) ;
#15 = APPLICATION_PROTOCOL_DEFINITION ( 'international standard', 'config_control_design', 1994, #148 ) ;
#16 = APPROVAL_PERSON_ORGANIZATION ( #141, #140, #4 ) ;
#17 = VECTOR ( 'NONE', #142, 1000.000000000000000 ) ;
#18 = APPROVAL_ROLE ( '' ) ;
#19 = PERSON_AND_ORGANIZATION ( #109, #169 ) ;
#20 = VERTEX_POINT ( 'NONE', #144 ) ;
#21 = EDGE_CURVE ( 'NONE', #143, #20, #111, .T. ) ;
#22 = APPROVAL ( #58, 'UNSPECIFIED' ) ;
#23 = LOCAL_TIME ( 15, 37, 13.00000000000000000, #170 ) ;
#24 = PERSON_AND_ORGANIZATION ( #109, #169 ) ;
#25 = CLOSED_SHELL ( 'NONE', ( #53, #90, #39, #158 ) ) ;
#26 = CARTESIAN_POINT ( 'NONE',  ( 0.000000000000000000, 2.000000000000000000, 0.000000000000000000 ) ) ;
#27 = DIRECTION ( 'NONE',  ( 0.000000000000000000, 0.000000000000000000, 1.000000000000000000 ) ) ;
#28 = CARTESIAN_POINT ( 'NONE',  ( 0.000000000000000000, 0.000000000000000000, 0.000000000000000000 ) ) ;
#29 = DIRECTION ( 'NONE',  ( 0.000000000000000000, 0.000000000000000000, 1.000000000000000000 ) ) ;
#30 = DATE_AND_TIME ( #63, #101 ) ;
#31 = CYLINDRICAL_SURFACE ( 'NONE', #51, 12.50000000000000000 ) ;
#32 = CARTESIAN_POINT ( 'NONE',  ( 0.000000000000000000, 2.000000000000000000, -12.50000000000000000 ) ) ;
#33 = DIRECTION ( 'NONE',  ( 0.000000000000000000, 0.000000000000000000, -1.000000000000000000 ) ) ;
#34 = LINE ( 'NONE', #32, #81 ) ;
#35 = ORIENTED_EDGE ( 'NONE', *, *, #128, .F. ) ;
#36 = LINE ( 'NONE', #94, #17 ) ;
#37 = CC_DESIGN_PERSON_AND_ORGANIZATION_ASSIGNMENT ( #19, #108, ( #168 ) ) ;
#38 = CARTESIAN_POINT ( 'NONE',  ( 0.000000000000000000, 2.000000000000000000, 0.000000000000000000 ) ) ;
#39 = ADVANCED_FACE ( 'NONE', ( #136 ), #77, .T. ) ;
#40 = CYLINDRICAL_SURFACE ( 'NONE', #115, 12.50000000000000000 ) ;
#41 = CARTESIAN_POINT ( 'NONE',  ( 0.000000000000000000, 2.000000000000000000, 0.000000000000000000 ) ) ;
#42 = PERSON_AND_ORGANIZATION_ROLE ( 'design_owner' ) ;
#43 = DATE_TIME_ROLE ( 'creation_date' ) ;
#44 = CARTESIAN_POINT ( 'NONE',  ( 0.000000000000000000, 2.000000000000000000, 0.000000000000000000 ) ) ;
#45 = CARTESIAN_POINT ( 'NONE',  ( 0.000000000000000000, 2.000000000000000000, -12.50000000000000000 ) ) ;
#46 = VERTEX_POINT ( 'NONE', #106 ) ;
#47 = CC_DESIGN_DATE_AND_TIME_ASSIGNMENT ( #61, #43, ( #168 ) ) ;
#48 = COORDINATED_UNIVERSAL_TIME_OFFSET ( 5, 0, .BEHIND. ) ;
#49 = FACE_OUTER_BOUND ( 'NONE', #6, .T. ) ;
#50 = APPROVAL_DATE_TIME ( #84, #22 ) ;
#51 = AXIS2_PLACEMENT_3D ( 'NONE', #41, #67, #33 ) ;
#52 = APPROVAL_PERSON_ORGANIZATION ( #153, #173, #166 ) ;
#53 = ADVANCED_FACE ( 'NONE', ( #117 ), #40, .T. ) ;
#54 = EDGE_CURVE ( 'NONE', #152, #46, #73, .T. ) ;
#55 = DIRECTION ( 'NONE',  ( 0.000000000000000000, -0.000000000000000000, 1.000000000000000000 ) ) ;
#56 = DIRECTION ( 'NONE',  ( -0.000000000000000000, -1.000000000000000000, -0.000000000000000000 ) ) ;
#57 =( NAMED_UNIT ( * ) SI_UNIT ( $, .STERADIAN. ) SOLID_ANGLE_UNIT ( ) );
#58 = APPROVAL_STATUS ( 'not_yet_approved' ) ;
#59 = COORDINATED_UNIVERSAL_TIME_OFFSET ( 5, 0, .BEHIND. ) ;
#60 = UNCERTAINTY_MEASURE_WITH_UNIT (LENGTH_MEASURE( 1.000000000000000082E-05 ), #175, 'distance_accuracy_value', 'NONE');
#61 = DATE_AND_TIME ( #116, #23 ) ;
#62 = PERSON_AND_ORGANIZATION ( #109, #169 ) ;
#63 = CALENDAR_DATE ( 2021, 14, 4 ) ;
#64 = ORIENTED_EDGE ( 'NONE', *, *, #85, .F. ) ;
#65 = DIRECTION ( 'NONE',  ( 0.000000000000000000, 1.000000000000000000, 0.000000000000000000 ) ) ;
#66 = DIRECTION ( 'NONE',  ( 0.000000000000000000, 0.000000000000000000, -1.000000000000000000 ) ) ;
#67 = DIRECTION ( 'NONE',  ( -0.000000000000000000, -1.000000000000000000, -0.000000000000000000 ) ) ;
#68 = APPROVAL_STATUS ( 'not_yet_approved' ) ;
#69 = PERSON_AND_ORGANIZATION_ROLE ( 'creator' ) ;
#70 = CC_DESIGN_DATE_AND_TIME_ASSIGNMENT ( #112, #113, ( #92 ) ) ;
#71 = EDGE_LOOP ( 'NONE', ( #127, #35 ) ) ;
#72 = PRODUCT_DEFINITION_SHAPE ( 'NONE', 'NONE',  #168 ) ;
#73 = CIRCLE ( 'NONE', #74, 12.50000000000000000 ) ;
#74 = AXIS2_PLACEMENT_3D ( 'NONE', #163, #164, #135 ) ;
#75 = LOCAL_TIME ( 15, 37, 13.00000000000000000, #59 ) ;
#76 = ORIENTED_EDGE ( 'NONE', *, *, #54, .T. ) ;
#77 = PLANE ( 'NONE',  #150 ) ;
#78 = ORIENTED_EDGE ( 'NONE', *, *, #79, .F. ) ;
#79 = EDGE_CURVE ( 'NONE', #46, #152, #87, .T. ) ;
#80 = LOCAL_TIME ( 15, 37, 13.00000000000000000, #48 ) ;
#81 = VECTOR ( 'NONE', #82, 1000.000000000000000 ) ;
#82 = DIRECTION ( 'NONE',  ( -0.000000000000000000, -1.000000000000000000, -0.000000000000000000 ) ) ;
#83 = APPROVAL_STATUS ( 'not_yet_approved' ) ;
#84 = DATE_AND_TIME ( #2, #75 ) ;
#85 = EDGE_CURVE ( 'NONE', #152, #143, #34, .T. ) ;
#86 = COORDINATED_UNIVERSAL_TIME_OFFSET ( 5, 0, .BEHIND. ) ;
#87 = CIRCLE ( 'NONE', #89, 12.50000000000000000 ) ;
#88 = CC_DESIGN_APPROVAL ( #22, ( #92 ) ) ;
#89 = AXIS2_PLACEMENT_3D ( 'NONE', #44, #121, #145 ) ;
#90 = ADVANCED_FACE ( 'NONE', ( #49 ), #31, .T. ) ;
#91 = ORIENTED_EDGE ( 'NONE', *, *, #85, .T. ) ;
#92 = SECURITY_CLASSIFICATION ( '', '', #174 ) ;
#93 = AXIS2_PLACEMENT_3D ( 'NONE', #132, #122, #134 ) ;
#94 = CARTESIAN_POINT ( 'NONE',  ( 1.530808498934191521E-15, 2.000000000000000000, 12.50000000000000000 ) ) ;
#95 = CALENDAR_DATE ( 2021, 14, 4 ) ;
#96 = PERSON_AND_ORGANIZATION_ROLE ( 'classification_officer' ) ;
#97 = APPLICATION_PROTOCOL_DEFINITION ( 'international standard', 'config_control_design', 1994, #149 ) ;
#98 = PRODUCT ( 'Web Model 68523_17198', 'Web Model 68523_17198', '', ( #14 ) ) ;
#99 = CARTESIAN_POINT ( 'NONE',  ( 0.000000000000000000, 0.000000000000000000, 0.000000000000000000 ) ) ;
#100 = APPROVAL_DATE_TIME ( #30, #173 ) ;
#101 = LOCAL_TIME ( 15, 37, 13.00000000000000000, #86 ) ;
#102 =( GEOMETRIC_REPRESENTATION_CONTEXT ( 3 ) GLOBAL_UNCERTAINTY_ASSIGNED_CONTEXT ( ( #60 ) ) GLOBAL_UNIT_ASSIGNED_CONTEXT ( ( #175, #3, #57 ) ) REPRESENTATION_CONTEXT ( 'NONE', 'WORKASPACE' ) );
#103 = CIRCLE ( 'NONE', #11, 12.50000000000000000 ) ;
#104 = CC_DESIGN_APPROVAL ( #140, ( #131 ) ) ;
#105 = PRODUCT_RELATED_PRODUCT_CATEGORY ( 'detail', '', ( #98 ) ) ;
#106 = CARTESIAN_POINT ( 'NONE',  ( 1.530808498934191521E-15, 2.000000000000000000, 12.50000000000000000 ) ) ;
#107 = LOCAL_TIME ( 15, 37, 13.00000000000000000, #165 ) ;
#108 = PERSON_AND_ORGANIZATION_ROLE ( 'creator' ) ;
#109 = PERSON ( 'UNSPECIFIED', 'UNSPECIFIED', 'UNSPECIFIED', ('UNSPECIFIED'), ('UNSPECIFIED'), ('UNSPECIFIED') ) ;
#110 = CC_DESIGN_PERSON_AND_ORGANIZATION_ASSIGNMENT ( #8, #96, ( #92 ) ) ;
#111 = CIRCLE ( 'NONE', #139, 12.50000000000000000 ) ;
#112 = DATE_AND_TIME ( #124, #107 ) ;
#113 = DATE_TIME_ROLE ( 'classification_date' ) ;
#114 = ORIENTED_EDGE ( 'NONE', *, *, #5, .T. ) ;
#115 = AXIS2_PLACEMENT_3D ( 'NONE', #38, #56, #66 ) ;
#116 = CALENDAR_DATE ( 2021, 14, 4 ) ;
#117 = FACE_OUTER_BOUND ( 'NONE', #155, .T. ) ;
#118 = APPROVAL_PERSON_ORGANIZATION ( #123, #22, #18 ) ;
#119 = CC_DESIGN_SECURITY_CLASSIFICATION ( #92, ( #131 ) ) ;
#120 = PLANE ( 'NONE',  #93 ) ;
#121 = DIRECTION ( 'NONE',  ( 0.000000000000000000, 1.000000000000000000, 0.000000000000000000 ) ) ;
#122 = DIRECTION ( 'NONE',  ( 0.000000000000000000, 1.000000000000000000, 0.000000000000000000 ) ) ;
#123 = PERSON_AND_ORGANIZATION ( #109, #169 ) ;
#124 = CALENDAR_DATE ( 2021, 14, 4 ) ;
#125 = ORIENTED_EDGE ( 'NONE', *, *, #128, .T. ) ;
#126 = APPROVAL_DATE_TIME ( #161, #140 ) ;
#127 = ORIENTED_EDGE ( 'NONE', *, *, #21, .F. ) ;
#128 = EDGE_CURVE ( 'NONE', #20, #143, #103, .T. ) ;
#129 = ADVANCED_BREP_SHAPE_REPRESENTATION ( 'Web Model 68523_17198', ( #157, #137 ), #102 ) ;
#130 = DIRECTION ( 'NONE',  ( 0.000000000000000000, 1.000000000000000000, 0.000000000000000000 ) ) ;
#131 = PRODUCT_DEFINITION_FORMATION_WITH_SPECIFIED_SOURCE ( 'ANY', '', #98, .NOT_KNOWN. ) ;
#132 = CARTESIAN_POINT ( 'NONE',  ( 0.000000000000000000, 0.000000000000000000, 0.000000000000000000 ) ) ;
#133 = PERSON_AND_ORGANIZATION_ROLE ( 'design_supplier' ) ;
#134 = DIRECTION ( 'NONE',  ( 0.000000000000000000, -0.000000000000000000, 1.000000000000000000 ) ) ;
#135 = DIRECTION ( 'NONE',  ( 0.000000000000000000, 0.000000000000000000, 1.000000000000000000 ) ) ;
#136 = FACE_OUTER_BOUND ( 'NONE', #147, .T. ) ;
#137 = AXIS2_PLACEMENT_3D ( 'NONE', #99, #29, #162 ) ;
#138 = ORIENTED_EDGE ( 'NONE', *, *, #5, .F. ) ;
#139 = AXIS2_PLACEMENT_3D ( 'NONE', #28, #130, #13 ) ;
#140 = APPROVAL ( #83, 'UNSPECIFIED' ) ;
#141 = PERSON_AND_ORGANIZATION ( #109, #169 ) ;
#142 = DIRECTION ( 'NONE',  ( -0.000000000000000000, -1.000000000000000000, -0.000000000000000000 ) ) ;
#143 = VERTEX_POINT ( 'NONE', #12 ) ;
#144 = CARTESIAN_POINT ( 'NONE',  ( 1.530808498934191521E-15, 0.000000000000000000, 12.50000000000000000 ) ) ;
#145 = DIRECTION ( 'NONE',  ( 0.000000000000000000, 0.000000000000000000, 1.000000000000000000 ) ) ;
#146 = SHAPE_DEFINITION_REPRESENTATION ( #72, #129 ) ;
#147 = EDGE_LOOP ( 'NONE', ( #76, #172 ) ) ;
#148 = APPLICATION_CONTEXT ( 'configuration controlled 3d designs of mechanical parts and assemblies' ) ;
#149 = APPLICATION_CONTEXT ( 'configuration controlled 3d designs of mechanical parts and assemblies' ) ;
#150 = AXIS2_PLACEMENT_3D ( 'NONE', #26, #65, #55 ) ;
#151 = DESIGN_CONTEXT ( 'detailed design', #149, 'design' ) ;
#152 = VERTEX_POINT ( 'NONE', #45 ) ;
#153 = PERSON_AND_ORGANIZATION ( #109, #169 ) ;
#154 = ORIENTED_EDGE ( 'NONE', *, *, #54, .F. ) ;
#155 = EDGE_LOOP ( 'NONE', ( #78, #114, #125, #64 ) ) ;
#156 = CC_DESIGN_PERSON_AND_ORGANIZATION_ASSIGNMENT ( #62, #42, ( #98 ) ) ;
#157 = MANIFOLD_SOLID_BREP ( 'Extrude1', #25 ) ;
#158 = ADVANCED_FACE ( 'NONE', ( #9 ), #120, .F. ) ;
#159 = PERSON_AND_ORGANIZATION ( #109, #169 ) ;
#160 = ORIENTED_EDGE ( 'NONE', *, *, #21, .T. ) ;
#161 = DATE_AND_TIME ( #95, #80 ) ;
#162 = DIRECTION ( 'NONE',  ( 1.000000000000000000, 0.000000000000000000, 0.000000000000000000 ) ) ;
#163 = CARTESIAN_POINT ( 'NONE',  ( 0.000000000000000000, 2.000000000000000000, 0.000000000000000000 ) ) ;
#164 = DIRECTION ( 'NONE',  ( 0.000000000000000000, 1.000000000000000000, 0.000000000000000000 ) ) ;
#165 = COORDINATED_UNIVERSAL_TIME_OFFSET ( 5, 0, .BEHIND. ) ;
#166 = APPROVAL_ROLE ( '' ) ;
#167 = DIRECTION ( 'NONE',  ( 0.000000000000000000, 1.000000000000000000, 0.000000000000000000 ) ) ;
#168 = PRODUCT_DEFINITION ( 'UNKNOWN', '', #131, #151 ) ;
#169 = ORGANIZATION ( 'UNSPECIFIED', 'UNSPECIFIED', '' ) ;
#170 = COORDINATED_UNIVERSAL_TIME_OFFSET ( 5, 0, .BEHIND. ) ;
#171 = CC_DESIGN_PERSON_AND_ORGANIZATION_ASSIGNMENT ( #24, #133, ( #131 ) ) ;
#172 = ORIENTED_EDGE ( 'NONE', *, *, #79, .T. ) ;
#173 = APPROVAL ( #68, 'UNSPECIFIED' ) ;
#174 = SECURITY_CLASSIFICATION_LEVEL ( 'unclassified' ) ;
#175 =( LENGTH_UNIT ( ) NAMED_UNIT ( * ) SI_UNIT ( .MILLI., .METRE. ) );
ENDSEC;
END-ISO-10303-21;
