ISO-10303-21;
HEADER;
FILE_DESCRIPTION (( 'STEP AP203' ),
    '1' );
FILE_NAME ('Web Model 14958_18323.step',
    '2021-06-28T14:38:56',
    ( '' ),
    ( '' ),
    'SwSTEP 2.0',
    'SolidWorks 2018',
    '' );
FILE_SCHEMA (( 'CONFIG_CONTROL_DESIGN' ));
ENDSEC;

DATA;
#1 = APPLICATION_CONTEXT ( 'configuration controlled 3d designs of mechanical parts and assemblies' ) ;
#2 = COORDINATED_UNIVERSAL_TIME_OFFSET ( 5, 0, .BEHIND. ) ;
#3 = CALENDAR_DATE ( 2021, 28, 6 ) ;
#4 = EDGE_LOOP ( 'NONE', ( #153, #147 ) ) ;
#5 = CC_DESIGN_APPROVAL ( #172, ( #140 ) ) ;
#6 = ORIENTED_EDGE ( 'NONE', *, *, #138, .T. ) ;
#7 = PLANE ( 'NONE',  #64 ) ;
#8 = APPROVAL_ROLE ( '' ) ;
#9 = PERSON_AND_ORGANIZATION_ROLE ( 'design_supplier' ) ;
#10 = COORDINATED_UNIVERSAL_TIME_OFFSET ( 5, 0, .BEHIND. ) ;
#11 = CIRCLE ( 'NONE', #114, 6.250000000000000000 ) ;
#12 = ORIENTED_EDGE ( 'NONE', *, *, #168, .T. ) ;
#13 = CC_DESIGN_SECURITY_CLASSIFICATION ( #140, ( #51 ) ) ;
#14 = LOCAL_TIME ( 10, 38, 56.00000000000000000, #135 ) ;
#15 = ORIENTED_EDGE ( 'NONE', *, *, #83, .F. ) ;
#16 = CALENDAR_DATE ( 2021, 28, 6 ) ;
#17 = PERSON_AND_ORGANIZATION ( #86, #29 ) ;
#18 = DIRECTION ( 'NONE',  ( 0.000000000000000000, 0.000000000000000000, -1.000000000000000000 ) ) ;
#19 = DIRECTION ( 'NONE',  ( 0.000000000000000000, 0.000000000000000000, -1.000000000000000000 ) ) ;
#20 = DIRECTION ( 'NONE',  ( -1.000000000000000000, -0.000000000000000000, -0.000000000000000000 ) ) ;
#21 = ADVANCED_FACE ( 'NONE', ( #170 ), #7, .F. ) ;
#22 = APPROVAL_STATUS ( 'not_yet_approved' ) ;
#23 = APPLICATION_CONTEXT ( 'configuration controlled 3d designs of mechanical parts and assemblies' ) ;
#24 = MECHANICAL_CONTEXT ( 'NONE', #1, 'mechanical' ) ;
#25 = LOCAL_TIME ( 10, 38, 56.00000000000000000, #65 ) ;
#26 = PRODUCT_RELATED_PRODUCT_CATEGORY ( 'detail', '', ( #150 ) ) ;
#27 = ORIENTED_EDGE ( 'NONE', *, *, #175, .T. ) ;
#28 = DATE_AND_TIME ( #16, #69 ) ;
#29 = ORGANIZATION ( 'UNSPECIFIED', 'UNSPECIFIED', '' ) ;
#30 = COORDINATED_UNIVERSAL_TIME_OFFSET ( 5, 0, .BEHIND. ) ;
#31 = ADVANCED_FACE ( 'NONE', ( #33 ), #77, .T. ) ;
#32 = CARTESIAN_POINT ( 'NONE',  ( 1.000000000000000000, 7.654042494670957606E-16, -6.250000000000000000 ) ) ;
#33 = FACE_OUTER_BOUND ( 'NONE', #173, .T. ) ;
#34 = DESIGN_CONTEXT ( 'detailed design', #23, 'design' ) ;
#35 = PRODUCT_DEFINITION ( 'UNKNOWN', '', #51, #34 ) ;
#36 = APPROVAL_DATE_TIME ( #28, #134 ) ;
#37 = VERTEX_POINT ( 'NONE', #143 ) ;
#38 = CC_DESIGN_APPROVAL ( #134, ( #35 ) ) ;
#39 = SHAPE_DEFINITION_REPRESENTATION ( #161, #106 ) ;
#40 = CC_DESIGN_PERSON_AND_ORGANIZATION_ASSIGNMENT ( #124, #61, ( #35 ) ) ;
#41 = APPROVAL_DATE_TIME ( #93, #172 ) ;
#42 = VERTEX_POINT ( 'NONE', #145 ) ;
#43 = DIRECTION ( 'NONE',  ( -1.000000000000000000, -0.000000000000000000, -0.000000000000000000 ) ) ;
#44 = DATE_TIME_ROLE ( 'classification_date' ) ;
#45 = CC_DESIGN_DATE_AND_TIME_ASSIGNMENT ( #141, #99, ( #35 ) ) ;
#46 = ORIENTED_EDGE ( 'NONE', *, *, #115, .T. ) ;
#47 = MANIFOLD_SOLID_BREP ( 'Boss-Extrude1', #136 ) ;
#48 = PERSON_AND_ORGANIZATION_ROLE ( 'classification_officer' ) ;
#49 = CIRCLE ( 'NONE', #123, 6.250000000000000000 ) ;
#50 = ORIENTED_EDGE ( 'NONE', *, *, #94, .F. ) ;
#51 = PRODUCT_DEFINITION_FORMATION_WITH_SPECIFIED_SOURCE ( 'ANY', '', #150, .NOT_KNOWN. ) ;
#52 = ORIENTED_EDGE ( 'NONE', *, *, #175, .F. ) ;
#53 = APPROVAL ( #22, 'UNSPECIFIED' ) ;
#54 = DIRECTION ( 'NONE',  ( 1.000000000000000000, 0.000000000000000000, 0.000000000000000000 ) ) ;
#55 = CARTESIAN_POINT ( 'NONE',  ( 1.000000000000000000, 0.000000000000000000, 0.000000000000000000 ) ) ;
#56 = PERSON_AND_ORGANIZATION ( #86, #29 ) ;
#57 = CARTESIAN_POINT ( 'NONE',  ( -1.000000000000000000, 0.000000000000000000, 6.250000000000000000 ) ) ;
#58 = DIRECTION ( 'NONE',  ( 0.000000000000000000, 0.000000000000000000, 1.000000000000000000 ) ) ;
#59 = SECURITY_CLASSIFICATION_LEVEL ( 'unclassified' ) ;
#60 = PERSON_AND_ORGANIZATION ( #86, #29 ) ;
#61 = PERSON_AND_ORGANIZATION_ROLE ( 'creator' ) ;
#62 = CALENDAR_DATE ( 2021, 28, 6 ) ;
#63 = EDGE_LOOP ( 'NONE', ( #6, #131 ) ) ;
#64 = AXIS2_PLACEMENT_3D ( 'NONE', #72, #96, #18 ) ;
#65 = COORDINATED_UNIVERSAL_TIME_OFFSET ( 5, 0, .BEHIND. ) ;
#66 = VECTOR ( 'NONE', #166, 1000.000000000000000 ) ;
#67 = CC_DESIGN_PERSON_AND_ORGANIZATION_ASSIGNMENT ( #79, #118, ( #51 ) ) ;
#68 = PLANE ( 'NONE',  #119 ) ;
#69 = LOCAL_TIME ( 10, 38, 56.00000000000000000, #10 ) ;
#70 = LINE ( 'NONE', #32, #66 ) ;
#71 = DIRECTION ( 'NONE',  ( 0.000000000000000000, 0.000000000000000000, -1.000000000000000000 ) ) ;
#72 = CARTESIAN_POINT ( 'NONE',  ( -1.000000000000000000, 0.000000000000000000, 0.000000000000000000 ) ) ;
#73 =( NAMED_UNIT ( * ) PLANE_ANGLE_UNIT ( ) SI_UNIT ( $, .RADIAN. ) );
#74 = DIRECTION ( 'NONE',  ( 1.000000000000000000, 0.000000000000000000, 0.000000000000000000 ) ) ;
#75 =( NAMED_UNIT ( * ) SI_UNIT ( $, .STERADIAN. ) SOLID_ANGLE_UNIT ( ) );
#76 = AXIS2_PLACEMENT_3D ( 'NONE', #133, #174, #74 ) ;
#77 = CYLINDRICAL_SURFACE ( 'NONE', #110, 6.250000000000000000 ) ;
#78 = CYLINDRICAL_SURFACE ( 'NONE', #137, 6.250000000000000000 ) ;
#79 = PERSON_AND_ORGANIZATION ( #86, #29 ) ;
#80 = CC_DESIGN_APPROVAL ( #53, ( #51 ) ) ;
#81 = CARTESIAN_POINT ( 'NONE',  ( 1.000000000000000000, 0.000000000000000000, 0.000000000000000000 ) ) ;
#82 = DIRECTION ( 'NONE',  ( 1.000000000000000000, 0.000000000000000000, 0.000000000000000000 ) ) ;
#83 = EDGE_CURVE ( 'NONE', #156, #37, #11, .T. ) ;
#84 = APPROVAL_STATUS ( 'not_yet_approved' ) ;
#85 = CIRCLE ( 'NONE', #155, 6.250000000000000000 ) ;
#86 = PERSON ( 'UNSPECIFIED', 'UNSPECIFIED', 'UNSPECIFIED', ('UNSPECIFIED'), ('UNSPECIFIED'), ('UNSPECIFIED') ) ;
#87 = APPROVAL_ROLE ( '' ) ;
#88 = APPLICATION_PROTOCOL_DEFINITION ( 'international standard', 'config_control_design', 1994, #23 ) ;
#89 = CALENDAR_DATE ( 2021, 28, 6 ) ;
#90 = PERSON_AND_ORGANIZATION ( #86, #29 ) ;
#91 = ORIENTED_EDGE ( 'NONE', *, *, #138, .F. ) ;
#92 = ORIENTED_EDGE ( 'NONE', *, *, #94, .T. ) ;
#93 = DATE_AND_TIME ( #62, #120 ) ;
#94 = EDGE_CURVE ( 'NONE', #37, #104, #122, .T. ) ;
#95 = DIRECTION ( 'NONE',  ( 1.000000000000000000, 0.000000000000000000, 0.000000000000000000 ) ) ;
#96 = DIRECTION ( 'NONE',  ( 1.000000000000000000, 0.000000000000000000, 0.000000000000000000 ) ) ;
#97 = PERSON_AND_ORGANIZATION ( #86, #29 ) ;
#98 = EDGE_LOOP ( 'NONE', ( #52, #91, #92, #46 ) ) ;
#99 = DATE_TIME_ROLE ( 'creation_date' ) ;
#100 = APPLICATION_PROTOCOL_DEFINITION ( 'international standard', 'config_control_design', 1994, #1 ) ;
#101 = APPROVAL_PERSON_ORGANIZATION ( #107, #134, #87 ) ;
#102 = CC_DESIGN_PERSON_AND_ORGANIZATION_ASSIGNMENT ( #90, #132, ( #150 ) ) ;
#103 = APPROVAL_DATE_TIME ( #146, #53 ) ;
#104 = VERTEX_POINT ( 'NONE', #57 ) ;
#105 = VECTOR ( 'NONE', #43, 1000.000000000000000 ) ;
#106 = ADVANCED_BREP_SHAPE_REPRESENTATION ( 'Web Model 14958_18323', ( #47, #76 ), #169 ) ;
#107 = PERSON_AND_ORGANIZATION ( #86, #29 ) ;
#108 = CARTESIAN_POINT ( 'NONE',  ( 1.000000000000000000, 0.000000000000000000, 0.000000000000000000 ) ) ;
#109 = CIRCLE ( 'NONE', #125, 6.250000000000000000 ) ;
#110 = AXIS2_PLACEMENT_3D ( 'NONE', #108, #20, #112 ) ;
#111 = CARTESIAN_POINT ( 'NONE',  ( 1.000000000000000000, 7.654042494670957606E-16, -6.250000000000000000 ) ) ;
#112 = DIRECTION ( 'NONE',  ( 0.000000000000000000, 0.000000000000000000, 1.000000000000000000 ) ) ;
#113 = CARTESIAN_POINT ( 'NONE',  ( -1.000000000000000000, 0.000000000000000000, 0.000000000000000000 ) ) ;
#114 = AXIS2_PLACEMENT_3D ( 'NONE', #81, #82, #148 ) ;
#115 = EDGE_CURVE ( 'NONE', #104, #42, #49, .T. ) ;
#116 = APPROVAL_ROLE ( '' ) ;
#117 = FACE_OUTER_BOUND ( 'NONE', #98, .T. ) ;
#118 = PERSON_AND_ORGANIZATION_ROLE ( 'creator' ) ;
#119 = AXIS2_PLACEMENT_3D ( 'NONE', #144, #95, #129 ) ;
#120 = LOCAL_TIME ( 10, 38, 56.00000000000000000, #30 ) ;
#121 = APPROVAL_PERSON_ORGANIZATION ( #97, #172, #116 ) ;
#122 = LINE ( 'NONE', #127, #105 ) ;
#123 = AXIS2_PLACEMENT_3D ( 'NONE', #142, #54, #71 ) ;
#124 = PERSON_AND_ORGANIZATION ( #86, #29 ) ;
#125 = AXIS2_PLACEMENT_3D ( 'NONE', #55, #157, #19 ) ;
#126 = CC_DESIGN_PERSON_AND_ORGANIZATION_ASSIGNMENT ( #56, #9, ( #51 ) ) ;
#127 = CARTESIAN_POINT ( 'NONE',  ( 1.000000000000000000, 0.000000000000000000, 6.250000000000000000 ) ) ;
#128 = ADVANCED_FACE ( 'NONE', ( #117 ), #78, .T. ) ;
#129 = DIRECTION ( 'NONE',  ( 0.000000000000000000, 0.000000000000000000, -1.000000000000000000 ) ) ;
#130 = APPROVAL_STATUS ( 'not_yet_approved' ) ;
#131 = ORIENTED_EDGE ( 'NONE', *, *, #83, .T. ) ;
#132 = PERSON_AND_ORGANIZATION_ROLE ( 'design_owner' ) ;
#133 = CARTESIAN_POINT ( 'NONE',  ( 0.000000000000000000, 0.000000000000000000, 0.000000000000000000 ) ) ;
#134 = APPROVAL ( #130, 'UNSPECIFIED' ) ;
#135 = COORDINATED_UNIVERSAL_TIME_OFFSET ( 5, 0, .BEHIND. ) ;
#136 = CLOSED_SHELL ( 'NONE', ( #31, #128, #149, #21 ) ) ;
#137 = AXIS2_PLACEMENT_3D ( 'NONE', #162, #160, #58 ) ;
#138 = EDGE_CURVE ( 'NONE', #37, #156, #109, .T. ) ;
#139 = LOCAL_TIME ( 10, 38, 56.00000000000000000, #2 ) ;
#140 = SECURITY_CLASSIFICATION ( '', '', #59 ) ;
#141 = DATE_AND_TIME ( #3, #25 ) ;
#142 = CARTESIAN_POINT ( 'NONE',  ( -1.000000000000000000, 0.000000000000000000, 0.000000000000000000 ) ) ;
#143 = CARTESIAN_POINT ( 'NONE',  ( 1.000000000000000000, 0.000000000000000000, 6.250000000000000000 ) ) ;
#144 = CARTESIAN_POINT ( 'NONE',  ( 1.000000000000000000, 0.000000000000000000, 0.000000000000000000 ) ) ;
#145 = CARTESIAN_POINT ( 'NONE',  ( -1.000000000000000000, 7.654042494670957606E-16, -6.250000000000000000 ) ) ;
#146 = DATE_AND_TIME ( #171, #139 ) ;
#147 = ORIENTED_EDGE ( 'NONE', *, *, #168, .F. ) ;
#148 = DIRECTION ( 'NONE',  ( 0.000000000000000000, 0.000000000000000000, -1.000000000000000000 ) ) ;
#149 = ADVANCED_FACE ( 'NONE', ( #154 ), #68, .T. ) ;
#150 = PRODUCT ( 'Web Model 14958_18323', 'Web Model 14958_18323', '', ( #24 ) ) ;
#151 = DIRECTION ( 'NONE',  ( 0.000000000000000000, 0.000000000000000000, -1.000000000000000000 ) ) ;
#152 = CC_DESIGN_PERSON_AND_ORGANIZATION_ASSIGNMENT ( #17, #48, ( #140 ) ) ;
#153 = ORIENTED_EDGE ( 'NONE', *, *, #115, .F. ) ;
#154 = FACE_OUTER_BOUND ( 'NONE', #63, .T. ) ;
#155 = AXIS2_PLACEMENT_3D ( 'NONE', #113, #167, #151 ) ;
#156 = VERTEX_POINT ( 'NONE', #111 ) ;
#157 = DIRECTION ( 'NONE',  ( 1.000000000000000000, 0.000000000000000000, 0.000000000000000000 ) ) ;
#158 = CC_DESIGN_DATE_AND_TIME_ASSIGNMENT ( #159, #44, ( #140 ) ) ;
#159 = DATE_AND_TIME ( #89, #14 ) ;
#160 = DIRECTION ( 'NONE',  ( -1.000000000000000000, -0.000000000000000000, -0.000000000000000000 ) ) ;
#161 = PRODUCT_DEFINITION_SHAPE ( 'NONE', 'NONE',  #35 ) ;
#162 = CARTESIAN_POINT ( 'NONE',  ( 1.000000000000000000, 0.000000000000000000, 0.000000000000000000 ) ) ;
#163 = UNCERTAINTY_MEASURE_WITH_UNIT (LENGTH_MEASURE( 1.000000000000000082E-05 ), #165, 'distance_accuracy_value', 'NONE');
#164 = APPROVAL_PERSON_ORGANIZATION ( #60, #53, #8 ) ;
#165 =( LENGTH_UNIT ( ) NAMED_UNIT ( * ) SI_UNIT ( .MILLI., .METRE. ) );
#166 = DIRECTION ( 'NONE',  ( -1.000000000000000000, -0.000000000000000000, -0.000000000000000000 ) ) ;
#167 = DIRECTION ( 'NONE',  ( 1.000000000000000000, 0.000000000000000000, 0.000000000000000000 ) ) ;
#168 = EDGE_CURVE ( 'NONE', #42, #104, #85, .T. ) ;
#169 =( GEOMETRIC_REPRESENTATION_CONTEXT ( 3 ) GLOBAL_UNCERTAINTY_ASSIGNED_CONTEXT ( ( #163 ) ) GLOBAL_UNIT_ASSIGNED_CONTEXT ( ( #165, #73, #75 ) ) REPRESENTATION_CONTEXT ( 'NONE', 'WORKASPACE' ) );
#170 = FACE_OUTER_BOUND ( 'NONE', #4, .T. ) ;
#171 = CALENDAR_DATE ( 2021, 28, 6 ) ;
#172 = APPROVAL ( #84, 'UNSPECIFIED' ) ;
#173 = EDGE_LOOP ( 'NONE', ( #15, #27, #12, #50 ) ) ;
#174 = DIRECTION ( 'NONE',  ( 0.000000000000000000, 0.000000000000000000, 1.000000000000000000 ) ) ;
#175 = EDGE_CURVE ( 'NONE', #156, #42, #70, .T. ) ;
ENDSEC;
END-ISO-10303-21;
