ISO-10303-21;
HEADER;
FILE_DESCRIPTION (( 'STEP AP203' ),
    '1' );
FILE_NAME ('Web Model 13795_13795.step',
    '2019-12-10T20:37:21',
    ( '' ),
    ( '' ),
    'SwSTEP 2.0',
    'SolidWorks 2018',
    '' );
FILE_SCHEMA (( 'CONFIG_CONTROL_DESIGN' ));
ENDSEC;

DATA;
#1 = DATE_AND_TIME ( #129, #36 ) ;
#2 =( GEOMETRIC_REPRESENTATION_CONTEXT ( 3 ) GLOBAL_UNCERTAINTY_ASSIGNED_CONTEXT ( ( #114 ) ) GLOBAL_UNIT_ASSIGNED_CONTEXT ( ( #84, #18, #32 ) ) REPRESENTATION_CONTEXT ( 'NONE', 'WORKASPACE' ) );
#3 = LOCAL_TIME ( 15, 37, 21.00000000000000000, #77 ) ;
#4 = AXIS2_PLACEMENT_3D ( 'NONE', #79, #168, #80 ) ;
#5 = DIRECTION ( 'NONE',  ( 1.000000000000000000, 0.0000000000000000000, 0.0000000000000000000 ) ) ;
#6 = EDGE_LOOP ( 'NONE', ( #153, #147, #57, #134 ) ) ;
#7 = DIRECTION ( 'NONE',  ( 0.0000000000000000000, 0.0000000000000000000, -1.000000000000000000 ) ) ;
#8 = DIRECTION ( 'NONE',  ( -1.000000000000000000, -0.0000000000000000000, -0.0000000000000000000 ) ) ;
#9 = LOCAL_TIME ( 15, 37, 21.00000000000000000, #106 ) ;
#10 = FACE_OUTER_BOUND ( 'NONE', #6, .T. ) ;
#11 = DIRECTION ( 'NONE',  ( -1.000000000000000000, -0.0000000000000000000, -0.0000000000000000000 ) ) ;
#12 = APPROVAL_ROLE ( '' ) ;
#13 = EDGE_CURVE ( 'NONE', #78, #37, #60, .T. ) ;
#14 = CALENDAR_DATE ( 2019, 10, 12 ) ;
#15 = EDGE_CURVE ( 'NONE', #137, #130, #169, .T. ) ;
#16 = LINE ( 'NONE', #155, #87 ) ;
#17 = CARTESIAN_POINT ( 'NONE',  ( 1.000000000000000000, 0.0000000000000000000, 0.0000000000000000000 ) ) ;
#18 =( NAMED_UNIT ( * ) PLANE_ANGLE_UNIT ( ) SI_UNIT ( $, .RADIAN. ) );
#19 = PERSON_AND_ORGANIZATION_ROLE ( 'design_owner' ) ;
#20 = PERSON_AND_ORGANIZATION ( #143, #24 ) ;
#21 = ORIENTED_EDGE ( 'NONE', *, *, #13, .T. ) ;
#22 = DATE_TIME_ROLE ( 'classification_date' ) ;
#23 = CC_DESIGN_PERSON_AND_ORGANIZATION_ASSIGNMENT ( #20, #19, ( #44 ) ) ;
#24 = ORGANIZATION ( 'UNSPECIFIED', 'UNSPECIFIED', '' ) ;
#25 = PRODUCT_DEFINITION_FORMATION_WITH_SPECIFIED_SOURCE ( 'ANY', '', #44, .NOT_KNOWN. ) ;
#26 = LINE ( 'NONE', #122, #162 ) ;
#27 = CARTESIAN_POINT ( 'NONE',  ( 1.000000000000000000, 0.0000000000000000000, 0.0000000000000000000 ) ) ;
#28 = CARTESIAN_POINT ( 'NONE',  ( 0.0000000000000000000, 0.0000000000000000000, 12.50000000000000000 ) ) ;
#29 = PERSON_AND_ORGANIZATION ( #143, #24 ) ;
#30 = APPROVAL_STATUS ( 'not_yet_approved' ) ;
#31 = CARTESIAN_POINT ( 'NONE',  ( 0.0000000000000000000, 0.0000000000000000000, 0.0000000000000000000 ) ) ;
#32 =( NAMED_UNIT ( * ) SI_UNIT ( $, .STERADIAN. ) SOLID_ANGLE_UNIT ( ) );
#33 = ORIENTED_EDGE ( 'NONE', *, *, #15, .T. ) ;
#34 = CC_DESIGN_DATE_AND_TIME_ASSIGNMENT ( #39, #81, ( #40 ) ) ;
#35 = AXIS2_PLACEMENT_3D ( 'NONE', #170, #64, #118 ) ;
#36 = LOCAL_TIME ( 15, 37, 21.00000000000000000, #85 ) ;
#37 = VERTEX_POINT ( 'NONE', #58 ) ;
#38 = MANIFOLD_SOLID_BREP ( '001', #166 ) ;
#39 = DATE_AND_TIME ( #52, #9 ) ;
#40 = PRODUCT_DEFINITION ( 'UNKNOWN', '', #25, #104 ) ;
#41 = SECURITY_CLASSIFICATION ( '', '', #86 ) ;
#42 = DIRECTION ( 'NONE',  ( 1.000000000000000000, 0.0000000000000000000, 0.0000000000000000000 ) ) ;
#43 = EDGE_CURVE ( 'NONE', #37, #78, #107, .T. ) ;
#44 = PRODUCT ( 'Web Model 13795_13795', 'Web Model 13795_13795', '', ( #124 ) ) ;
#45 = CARTESIAN_POINT ( 'NONE',  ( 0.0000000000000000000, 0.0000000000000000000, 0.0000000000000000000 ) ) ;
#46 = CARTESIAN_POINT ( 'NONE',  ( 1.000000000000000000, 0.0000000000000000000, 0.0000000000000000000 ) ) ;
#47 = APPROVAL_ROLE ( '' ) ;
#48 = FACE_OUTER_BOUND ( 'NONE', #55, .T. ) ;
#49 = CARTESIAN_POINT ( 'NONE',  ( 1.000000000000000000, 1.530808498934191521E-15, -12.50000000000000000 ) ) ;
#50 = APPROVAL_ROLE ( '' ) ;
#51 = DATE_AND_TIME ( #123, #65 ) ;
#52 = CALENDAR_DATE ( 2019, 10, 12 ) ;
#53 = APPROVAL ( #173, 'UNSPECIFIED' ) ;
#54 = CC_DESIGN_PERSON_AND_ORGANIZATION_ASSIGNMENT ( #89, #95, ( #41 ) ) ;
#55 = EDGE_LOOP ( 'NONE', ( #112, #152, #149, #21 ) ) ;
#56 = PERSON_AND_ORGANIZATION ( #143, #24 ) ;
#57 = ORIENTED_EDGE ( 'NONE', *, *, #43, .T. ) ;
#58 = CARTESIAN_POINT ( 'NONE',  ( 0.0000000000000000000, 1.530808498934191521E-15, -12.50000000000000000 ) ) ;
#59 = CC_DESIGN_DATE_AND_TIME_ASSIGNMENT ( #91, #22, ( #41 ) ) ;
#60 = CIRCLE ( 'NONE', #150, 12.50000000000000000 ) ;
#61 = DIRECTION ( 'NONE',  ( 0.0000000000000000000, 0.0000000000000000000, -1.000000000000000000 ) ) ;
#62 = DIRECTION ( 'NONE',  ( 1.000000000000000000, 0.0000000000000000000, 0.0000000000000000000 ) ) ;
#63 = CC_DESIGN_APPROVAL ( #83, ( #41 ) ) ;
#64 = DIRECTION ( 'NONE',  ( 1.000000000000000000, 0.0000000000000000000, 0.0000000000000000000 ) ) ;
#65 = LOCAL_TIME ( 15, 37, 21.00000000000000000, #96 ) ;
#66 = PRODUCT_RELATED_PRODUCT_CATEGORY ( 'detail', '', ( #44 ) ) ;
#67 = PERSON_AND_ORGANIZATION_ROLE ( 'creator' ) ;
#68 = ADVANCED_BREP_SHAPE_REPRESENTATION ( 'Web Model 13795_13795', ( #38, #90 ), #2 ) ;
#69 = CC_DESIGN_APPROVAL ( #53, ( #40 ) ) ;
#70 = APPROVAL_PERSON_ORGANIZATION ( #82, #83, #12 ) ;
#71 = ORIENTED_EDGE ( 'NONE', *, *, #43, .F. ) ;
#72 = APPROVAL_STATUS ( 'not_yet_approved' ) ;
#73 = CC_DESIGN_PERSON_AND_ORGANIZATION_ASSIGNMENT ( #151, #158, ( #25 ) ) ;
#74 = CYLINDRICAL_SURFACE ( 'NONE', #163, 12.50000000000000000 ) ;
#75 = CC_DESIGN_PERSON_AND_ORGANIZATION_ASSIGNMENT ( #29, #148, ( #40 ) ) ;
#76 = ADVANCED_FACE ( 'NONE', ( #94 ), #103, .F. ) ;
#77 = COORDINATED_UNIVERSAL_TIME_OFFSET ( 5, 0, .BEHIND. ) ;
#78 = VERTEX_POINT ( 'NONE', #28 ) ;
#79 = CARTESIAN_POINT ( 'NONE',  ( 1.000000000000000000, 0.0000000000000000000, 0.0000000000000000000 ) ) ;
#80 = DIRECTION ( 'NONE',  ( 0.0000000000000000000, 0.0000000000000000000, -1.000000000000000000 ) ) ;
#81 = DATE_TIME_ROLE ( 'creation_date' ) ;
#82 = PERSON_AND_ORGANIZATION ( #143, #24 ) ;
#83 = APPROVAL ( #72, 'UNSPECIFIED' ) ;
#84 =( LENGTH_UNIT ( ) NAMED_UNIT ( * ) SI_UNIT ( .MILLI., .METRE. ) );
#85 = COORDINATED_UNIVERSAL_TIME_OFFSET ( 5, 0, .BEHIND. ) ;
#86 = SECURITY_CLASSIFICATION_LEVEL ( 'unclassified' ) ;
#87 = VECTOR ( 'NONE', #8, 1000.000000000000000 ) ;
#88 = APPROVAL ( #30, 'UNSPECIFIED' ) ;
#89 = PERSON_AND_ORGANIZATION ( #143, #24 ) ;
#90 = AXIS2_PLACEMENT_3D ( 'NONE', #142, #108, #161 ) ;
#91 = DATE_AND_TIME ( #127, #159 ) ;
#92 = CARTESIAN_POINT ( 'NONE',  ( 0.0000000000000000000, 0.0000000000000000000, 0.0000000000000000000 ) ) ;
#93 = DIRECTION ( 'NONE',  ( -1.000000000000000000, -0.0000000000000000000, -0.0000000000000000000 ) ) ;
#94 = FACE_OUTER_BOUND ( 'NONE', #154, .T. ) ;
#95 = PERSON_AND_ORGANIZATION_ROLE ( 'classification_officer' ) ;
#96 = COORDINATED_UNIVERSAL_TIME_OFFSET ( 5, 0, .BEHIND. ) ;
#97 = ORIENTED_EDGE ( 'NONE', *, *, #13, .F. ) ;
#98 = EDGE_CURVE ( 'NONE', #130, #137, #140, .T. ) ;
#99 = ORIENTED_EDGE ( 'NONE', *, *, #98, .T. ) ;
#100 = APPROVAL_PERSON_ORGANIZATION ( #56, #53, #50 ) ;
#101 = ADVANCED_FACE ( 'NONE', ( #48 ), #139, .T. ) ;
#102 = ADVANCED_FACE ( 'NONE', ( #131 ), #141, .T. ) ;
#103 = PLANE ( 'NONE',  #138 ) ;
#104 = DESIGN_CONTEXT ( 'detailed design', #120, 'design' ) ;
#105 = PRODUCT_DEFINITION_SHAPE ( 'NONE', 'NONE',  #40 ) ;
#106 = COORDINATED_UNIVERSAL_TIME_OFFSET ( 5, 0, .BEHIND. ) ;
#107 = CIRCLE ( 'NONE', #109, 12.50000000000000000 ) ;
#108 = DIRECTION ( 'NONE',  ( 0.0000000000000000000, 0.0000000000000000000, 1.000000000000000000 ) ) ;
#109 = AXIS2_PLACEMENT_3D ( 'NONE', #45, #62, #7 ) ;
#110 = APPROVAL_DATE_TIME ( #145, #83 ) ;
#111 = SHAPE_DEFINITION_REPRESENTATION ( #105, #68 ) ;
#112 = ORIENTED_EDGE ( 'NONE', *, *, #126, .F. ) ;
#113 = COORDINATED_UNIVERSAL_TIME_OFFSET ( 5, 0, .BEHIND. ) ;
#114 = UNCERTAINTY_MEASURE_WITH_UNIT (LENGTH_MEASURE( 1.000000000000000082E-05 ), #84, 'distance_accuracy_value', 'NONE');
#115 = DIRECTION ( 'NONE',  ( 0.0000000000000000000, 0.0000000000000000000, 1.000000000000000000 ) ) ;
#116 = ADVANCED_FACE ( 'NONE', ( #10 ), #74, .T. ) ;
#117 = PERSON_AND_ORGANIZATION ( #143, #24 ) ;
#118 = DIRECTION ( 'NONE',  ( 0.0000000000000000000, 0.0000000000000000000, -1.000000000000000000 ) ) ;
#119 = DIRECTION ( 'NONE',  ( 0.0000000000000000000, 0.0000000000000000000, -1.000000000000000000 ) ) ;
#120 = APPLICATION_CONTEXT ( 'configuration controlled 3d designs of mechanical parts and assemblies' ) ;
#121 = CC_DESIGN_PERSON_AND_ORGANIZATION_ASSIGNMENT ( #125, #67, ( #25 ) ) ;
#122 = CARTESIAN_POINT ( 'NONE',  ( 1.000000000000000000, 1.530808498934191521E-15, -12.50000000000000000 ) ) ;
#123 = CALENDAR_DATE ( 2019, 10, 12 ) ;
#124 = MECHANICAL_CONTEXT ( 'NONE', #144, 'mechanical' ) ;
#125 = PERSON_AND_ORGANIZATION ( #143, #24 ) ;
#126 = EDGE_CURVE ( 'NONE', #137, #37, #26, .T. ) ;
#127 = CALENDAR_DATE ( 2019, 10, 12 ) ;
#128 = EDGE_CURVE ( 'NONE', #130, #78, #16, .T. ) ;
#129 = CALENDAR_DATE ( 2019, 10, 12 ) ;
#130 = VERTEX_POINT ( 'NONE', #167 ) ;
#131 = FACE_OUTER_BOUND ( 'NONE', #175, .T. ) ;
#132 = AXIS2_PLACEMENT_3D ( 'NONE', #46, #93, #115 ) ;
#133 = DIRECTION ( 'NONE',  ( -1.000000000000000000, -0.0000000000000000000, -0.0000000000000000000 ) ) ;
#134 = ORIENTED_EDGE ( 'NONE', *, *, #128, .F. ) ;
#135 = APPLICATION_PROTOCOL_DEFINITION ( 'international standard', 'config_control_design', 1994, #120 ) ;
#136 = APPROVAL_DATE_TIME ( #1, #88 ) ;
#137 = VERTEX_POINT ( 'NONE', #49 ) ;
#138 = AXIS2_PLACEMENT_3D ( 'NONE', #92, #42, #156 ) ;
#139 = CYLINDRICAL_SURFACE ( 'NONE', #132, 12.50000000000000000 ) ;
#140 = CIRCLE ( 'NONE', #4, 12.50000000000000000 ) ;
#141 = PLANE ( 'NONE',  #35 ) ;
#142 = CARTESIAN_POINT ( 'NONE',  ( 0.0000000000000000000, 0.0000000000000000000, 0.0000000000000000000 ) ) ;
#143 = PERSON ( 'UNSPECIFIED', 'UNSPECIFIED', 'UNSPECIFIED', ('UNSPECIFIED'), ('UNSPECIFIED'), ('UNSPECIFIED') ) ;
#144 = APPLICATION_CONTEXT ( 'configuration controlled 3d designs of mechanical parts and assemblies' ) ;
#145 = DATE_AND_TIME ( #14, #3 ) ;
#146 = APPLICATION_PROTOCOL_DEFINITION ( 'international standard', 'config_control_design', 1994, #144 ) ;
#147 = ORIENTED_EDGE ( 'NONE', *, *, #126, .T. ) ;
#148 = PERSON_AND_ORGANIZATION_ROLE ( 'creator' ) ;
#149 = ORIENTED_EDGE ( 'NONE', *, *, #128, .T. ) ;
#150 = AXIS2_PLACEMENT_3D ( 'NONE', #31, #172, #119 ) ;
#151 = PERSON_AND_ORGANIZATION ( #143, #24 ) ;
#152 = ORIENTED_EDGE ( 'NONE', *, *, #98, .F. ) ;
#153 = ORIENTED_EDGE ( 'NONE', *, *, #15, .F. ) ;
#154 = EDGE_LOOP ( 'NONE', ( #97, #71 ) ) ;
#155 = CARTESIAN_POINT ( 'NONE',  ( 1.000000000000000000, 0.0000000000000000000, 12.50000000000000000 ) ) ;
#156 = DIRECTION ( 'NONE',  ( 0.0000000000000000000, 0.0000000000000000000, -1.000000000000000000 ) ) ;
#157 = DIRECTION ( 'NONE',  ( 0.0000000000000000000, 0.0000000000000000000, 1.000000000000000000 ) ) ;
#158 = PERSON_AND_ORGANIZATION_ROLE ( 'design_supplier' ) ;
#159 = LOCAL_TIME ( 15, 37, 21.00000000000000000, #113 ) ;
#160 = AXIS2_PLACEMENT_3D ( 'NONE', #27, #5, #61 ) ;
#161 = DIRECTION ( 'NONE',  ( 1.000000000000000000, 0.0000000000000000000, 0.0000000000000000000 ) ) ;
#162 = VECTOR ( 'NONE', #11, 1000.000000000000000 ) ;
#163 = AXIS2_PLACEMENT_3D ( 'NONE', #17, #133, #157 ) ;
#164 = APPROVAL_DATE_TIME ( #51, #53 ) ;
#165 = CC_DESIGN_APPROVAL ( #88, ( #25 ) ) ;
#166 = CLOSED_SHELL ( 'NONE', ( #116, #101, #102, #76 ) ) ;
#167 = CARTESIAN_POINT ( 'NONE',  ( 1.000000000000000000, 0.0000000000000000000, 12.50000000000000000 ) ) ;
#168 = DIRECTION ( 'NONE',  ( 1.000000000000000000, 0.0000000000000000000, 0.0000000000000000000 ) ) ;
#169 = CIRCLE ( 'NONE', #160, 12.50000000000000000 ) ;
#170 = CARTESIAN_POINT ( 'NONE',  ( 1.000000000000000000, 0.0000000000000000000, 0.0000000000000000000 ) ) ;
#171 = CC_DESIGN_SECURITY_CLASSIFICATION ( #41, ( #25 ) ) ;
#172 = DIRECTION ( 'NONE',  ( 1.000000000000000000, 0.0000000000000000000, 0.0000000000000000000 ) ) ;
#173 = APPROVAL_STATUS ( 'not_yet_approved' ) ;
#174 = APPROVAL_PERSON_ORGANIZATION ( #117, #88, #47 ) ;
#175 = EDGE_LOOP ( 'NONE', ( #99, #33 ) ) ;
ENDSEC;
END-ISO-10303-21;
