ISO-10303-21;
HEADER;
FILE_DESCRIPTION (( 'STEP AP203' ),
    '1' );
FILE_NAME ('Web Model 43365_43365.step',
    '2020-10-21T18:17:58',
    ( '' ),
    ( '' ),
    'SwSTEP 2.0',
    'SolidWorks 2018',
    '' );
FILE_SCHEMA (( 'CONFIG_CONTROL_DESIGN' ));
ENDSEC;

DATA;
#1 = DATE_TIME_ROLE ( 'creation_date' ) ;
#2 = PRODUCT_DEFINITION ( 'UNKNOWN', '', #9, #156 ) ;
#3 = FACE_OUTER_BOUND ( 'NONE', #160, .T. ) ;
#4 = DIRECTION ( 'NONE',  ( 0.0000000000000000000, 0.0000000000000000000, 1.000000000000000000 ) ) ;
#5 = PERSON_AND_ORGANIZATION_ROLE ( 'design_supplier' ) ;
#6 = COORDINATED_UNIVERSAL_TIME_OFFSET ( 5, 0, .BEHIND. ) ;
#7 = APPROVAL ( #21, 'UNSPECIFIED' ) ;
#8 = PERSON ( 'UNSPECIFIED', 'UNSPECIFIED', 'UNSPECIFIED', ('UNSPECIFIED'), ('UNSPECIFIED'), ('UNSPECIFIED') ) ;
#9 = PRODUCT_DEFINITION_FORMATION_WITH_SPECIFIED_SOURCE ( 'ANY', '', #33, .NOT_KNOWN. ) ;
#10 = APPROVAL_DATE_TIME ( #62, #37 ) ;
#11 = APPROVAL_DATE_TIME ( #46, #7 ) ;
#12 = CARTESIAN_POINT ( 'NONE',  ( 0.0000000000000000000, 0.0000000000000000000, 1.000000000000000000 ) ) ;
#13 = DIRECTION ( 'NONE',  ( 0.0000000000000000000, 0.0000000000000000000, 1.000000000000000000 ) ) ;
#14 = VECTOR ( 'NONE', #162, 1000.000000000000000 ) ;
#15 = CC_DESIGN_APPROVAL ( #7, ( #44 ) ) ;
#16 = LOCAL_TIME ( 14, 17, 58.00000000000000000, #51 ) ;
#17 = VERTEX_POINT ( 'NONE', #64 ) ;
#18 = DIRECTION ( 'NONE',  ( 0.0000000000000000000, 0.0000000000000000000, 1.000000000000000000 ) ) ;
#19 = AXIS2_PLACEMENT_3D ( 'NONE', #80, #52, #141 ) ;
#20 = FACE_OUTER_BOUND ( 'NONE', #24, .T. ) ;
#21 = APPROVAL_STATUS ( 'not_yet_approved' ) ;
#22 = ORIENTED_EDGE ( 'NONE', *, *, #128, .T. ) ;
#23 = LOCAL_TIME ( 14, 17, 58.00000000000000000, #25 ) ;
#24 = EDGE_LOOP ( 'NONE', ( #26, #94 ) ) ;
#25 = COORDINATED_UNIVERSAL_TIME_OFFSET ( 5, 0, .BEHIND. ) ;
#26 = ORIENTED_EDGE ( 'NONE', *, *, #170, .T. ) ;
#27 = CARTESIAN_POINT ( 'NONE',  ( -2.499999999999999556, 0.0000000000000000000, 1.000000000000000000 ) ) ;
#28 = ADVANCED_FACE ( 'NONE', ( #3 ), #59, .T. ) ;
#29 =( NAMED_UNIT ( * ) PLANE_ANGLE_UNIT ( ) SI_UNIT ( $, .RADIAN. ) );
#30 = AXIS2_PLACEMENT_3D ( 'NONE', #38, #143, #172 ) ;
#31 = PERSON_AND_ORGANIZATION_ROLE ( 'design_owner' ) ;
#32 = APPROVAL_PERSON_ORGANIZATION ( #91, #169, #167 ) ;
#33 = PRODUCT ( 'Web Model 43365_43365', 'Web Model 43365_43365', '', ( #164 ) ) ;
#34 = CC_DESIGN_SECURITY_CLASSIFICATION ( #44, ( #9 ) ) ;
#35 = ORGANIZATION ( 'UNSPECIFIED', 'UNSPECIFIED', '' ) ;
#36 = ORIENTED_EDGE ( 'NONE', *, *, #101, .F. ) ;
#37 = APPROVAL ( #107, 'UNSPECIFIED' ) ;
#38 = CARTESIAN_POINT ( 'NONE',  ( 0.0000000000000000000, 0.0000000000000000000, 0.0000000000000000000 ) ) ;
#39 = PLANE ( 'NONE',  #30 ) ;
#40 = PRODUCT_RELATED_PRODUCT_CATEGORY ( 'detail', '', ( #33 ) ) ;
#41 = DIRECTION ( 'NONE',  ( 0.0000000000000000000, 0.0000000000000000000, 1.000000000000000000 ) ) ;
#42 = DIRECTION ( 'NONE',  ( 1.000000000000000000, 0.0000000000000000000, 0.0000000000000000000 ) ) ;
#43 = APPROVAL_ROLE ( '' ) ;
#44 = SECURITY_CLASSIFICATION ( '', '', #73 ) ;
#45 = APPROVAL_PERSON_ORGANIZATION ( #111, #7, #43 ) ;
#46 = DATE_AND_TIME ( #113, #105 ) ;
#47 = ORIENTED_EDGE ( 'NONE', *, *, #101, .T. ) ;
#48 = CC_DESIGN_PERSON_AND_ORGANIZATION_ASSIGNMENT ( #171, #87, ( #2 ) ) ;
#49 = LINE ( 'NONE', #130, #14 ) ;
#50 = ADVANCED_BREP_SHAPE_REPRESENTATION ( 'Web Model 43365_43365', ( #112, #121 ), #163 ) ;
#51 = COORDINATED_UNIVERSAL_TIME_OFFSET ( 5, 0, .BEHIND. ) ;
#52 = DIRECTION ( 'NONE',  ( -0.0000000000000000000, -0.0000000000000000000, -1.000000000000000000 ) ) ;
#53 = APPROVAL_DATE_TIME ( #71, #169 ) ;
#54 = EDGE_LOOP ( 'NONE', ( #60, #168 ) ) ;
#55 = CARTESIAN_POINT ( 'NONE',  ( -2.499999999999999556, 0.0000000000000000000, 1.000000000000000000 ) ) ;
#56 = DIRECTION ( 'NONE',  ( 0.0000000000000000000, 0.0000000000000000000, 1.000000000000000000 ) ) ;
#57 = CARTESIAN_POINT ( 'NONE',  ( 0.0000000000000000000, 0.0000000000000000000, 1.000000000000000000 ) ) ;
#58 = CALENDAR_DATE ( 2020, 21, 10 ) ;
#59 = CYLINDRICAL_SURFACE ( 'NONE', #19, 2.499999999999999556 ) ;
#60 = ORIENTED_EDGE ( 'NONE', *, *, #128, .F. ) ;
#61 = AXIS2_PLACEMENT_3D ( 'NONE', #122, #18, #133 ) ;
#62 = DATE_AND_TIME ( #98, #155 ) ;
#63 = ORIENTED_EDGE ( 'NONE', *, *, #99, .F. ) ;
#64 = CARTESIAN_POINT ( 'NONE',  ( -2.499999999999999556, 0.0000000000000000000, 0.0000000000000000000 ) ) ;
#65 = DIRECTION ( 'NONE',  ( -0.0000000000000000000, -0.0000000000000000000, -1.000000000000000000 ) ) ;
#66 = CARTESIAN_POINT ( 'NONE',  ( 0.0000000000000000000, 0.0000000000000000000, 0.0000000000000000000 ) ) ;
#67 = DIRECTION ( 'NONE',  ( -1.000000000000000000, 0.0000000000000000000, 0.0000000000000000000 ) ) ;
#68 = CARTESIAN_POINT ( 'NONE',  ( 2.499999999999999556, 3.061616997868382648E-16, 1.000000000000000000 ) ) ;
#69 = APPROVAL_STATUS ( 'not_yet_approved' ) ;
#70 = APPLICATION_CONTEXT ( 'configuration controlled 3d designs of mechanical parts and assemblies' ) ;
#71 = DATE_AND_TIME ( #138, #118 ) ;
#72 = CIRCLE ( 'NONE', #75, 2.499999999999999556 ) ;
#73 = SECURITY_CLASSIFICATION_LEVEL ( 'unclassified' ) ;
#74 = PERSON_AND_ORGANIZATION_ROLE ( 'creator' ) ;
#75 = AXIS2_PLACEMENT_3D ( 'NONE', #134, #41, #117 ) ;
#76 = COORDINATED_UNIVERSAL_TIME_OFFSET ( 5, 0, .BEHIND. ) ;
#77 = DATE_AND_TIME ( #58, #16 ) ;
#78 = VERTEX_POINT ( 'NONE', #27 ) ;
#79 = CIRCLE ( 'NONE', #153, 2.499999999999999556 ) ;
#80 = CARTESIAN_POINT ( 'NONE',  ( 0.0000000000000000000, 0.0000000000000000000, 1.000000000000000000 ) ) ;
#81 = PRODUCT_DEFINITION_SHAPE ( 'NONE', 'NONE',  #2 ) ;
#82 = ADVANCED_FACE ( 'NONE', ( #123 ), #39, .F. ) ;
#83 = CC_DESIGN_PERSON_AND_ORGANIZATION_ASSIGNMENT ( #100, #124, ( #44 ) ) ;
#84 = DIRECTION ( 'NONE',  ( 0.0000000000000000000, 0.0000000000000000000, 1.000000000000000000 ) ) ;
#85 = PERSON_AND_ORGANIZATION ( #8, #35 ) ;
#86 = ORIENTED_EDGE ( 'NONE', *, *, #173, .F. ) ;
#87 = PERSON_AND_ORGANIZATION_ROLE ( 'creator' ) ;
#88 = DATE_AND_TIME ( #144, #23 ) ;
#89 = VECTOR ( 'NONE', #65, 1000.000000000000000 ) ;
#90 = DATE_TIME_ROLE ( 'classification_date' ) ;
#91 = PERSON_AND_ORGANIZATION ( #8, #35 ) ;
#92 = CC_DESIGN_DATE_AND_TIME_ASSIGNMENT ( #88, #90, ( #44 ) ) ;
#93 = PLANE ( 'NONE',  #161 ) ;
#94 = ORIENTED_EDGE ( 'NONE', *, *, #173, .T. ) ;
#95 = ADVANCED_FACE ( 'NONE', ( #20 ), #93, .T. ) ;
#96 = DIRECTION ( 'NONE',  ( 1.000000000000000000, 0.0000000000000000000, 0.0000000000000000000 ) ) ;
#97 = DIRECTION ( 'NONE',  ( 1.000000000000000000, 0.0000000000000000000, 0.0000000000000000000 ) ) ;
#98 = CALENDAR_DATE ( 2020, 21, 10 ) ;
#99 = EDGE_CURVE ( 'NONE', #78, #17, #116, .T. ) ;
#100 = PERSON_AND_ORGANIZATION ( #8, #35 ) ;
#101 = EDGE_CURVE ( 'NONE', #166, #140, #49, .T. ) ;
#102 = CC_DESIGN_PERSON_AND_ORGANIZATION_ASSIGNMENT ( #85, #74, ( #9 ) ) ;
#103 = CARTESIAN_POINT ( 'NONE',  ( 0.0000000000000000000, 0.0000000000000000000, 1.000000000000000000 ) ) ;
#104 = AXIS2_PLACEMENT_3D ( 'NONE', #57, #84, #97 ) ;
#105 = LOCAL_TIME ( 14, 17, 58.00000000000000000, #76 ) ;
#106 =( NAMED_UNIT ( * ) SI_UNIT ( $, .STERADIAN. ) SOLID_ANGLE_UNIT ( ) );
#107 = APPROVAL_STATUS ( 'not_yet_approved' ) ;
#108 = PERSON_AND_ORGANIZATION ( #8, #35 ) ;
#109 =( LENGTH_UNIT ( ) NAMED_UNIT ( * ) SI_UNIT ( .MILLI., .METRE. ) );
#110 = ORIENTED_EDGE ( 'NONE', *, *, #157, .T. ) ;
#111 = PERSON_AND_ORGANIZATION ( #8, #35 ) ;
#112 = MANIFOLD_SOLID_BREP ( 'Boss-Extrude1', #126 ) ;
#113 = CALENDAR_DATE ( 2020, 21, 10 ) ;
#114 = CC_DESIGN_APPROVAL ( #37, ( #9 ) ) ;
#115 = PERSON_AND_ORGANIZATION ( #8, #35 ) ;
#116 = LINE ( 'NONE', #55, #89 ) ;
#117 = DIRECTION ( 'NONE',  ( 1.000000000000000000, 0.0000000000000000000, 0.0000000000000000000 ) ) ;
#118 = LOCAL_TIME ( 14, 17, 58.00000000000000000, #6 ) ;
#119 = ORIENTED_EDGE ( 'NONE', *, *, #99, .T. ) ;
#120 = APPLICATION_CONTEXT ( 'configuration controlled 3d designs of mechanical parts and assemblies' ) ;
#121 = AXIS2_PLACEMENT_3D ( 'NONE', #66, #4, #42 ) ;
#122 = CARTESIAN_POINT ( 'NONE',  ( 0.0000000000000000000, 0.0000000000000000000, 0.0000000000000000000 ) ) ;
#123 = FACE_OUTER_BOUND ( 'NONE', #54, .T. ) ;
#124 = PERSON_AND_ORGANIZATION_ROLE ( 'classification_officer' ) ;
#125 = COORDINATED_UNIVERSAL_TIME_OFFSET ( 5, 0, .BEHIND. ) ;
#126 = CLOSED_SHELL ( 'NONE', ( #147, #28, #95, #82 ) ) ;
#127 = CYLINDRICAL_SURFACE ( 'NONE', #135, 2.499999999999999556 ) ;
#128 = EDGE_CURVE ( 'NONE', #17, #140, #152, .T. ) ;
#129 = PERSON_AND_ORGANIZATION ( #8, #35 ) ;
#130 = CARTESIAN_POINT ( 'NONE',  ( 2.499999999999999556, 3.061616997868382648E-16, 1.000000000000000000 ) ) ;
#131 = CARTESIAN_POINT ( 'NONE',  ( 2.499999999999999556, 3.061616997868382648E-16, 0.0000000000000000000 ) ) ;
#132 = CC_DESIGN_PERSON_AND_ORGANIZATION_ASSIGNMENT ( #115, #31, ( #33 ) ) ;
#133 = DIRECTION ( 'NONE',  ( 1.000000000000000000, 0.0000000000000000000, 0.0000000000000000000 ) ) ;
#134 = CARTESIAN_POINT ( 'NONE',  ( 0.0000000000000000000, 0.0000000000000000000, 0.0000000000000000000 ) ) ;
#135 = AXIS2_PLACEMENT_3D ( 'NONE', #103, #151, #67 ) ;
#136 = UNCERTAINTY_MEASURE_WITH_UNIT (LENGTH_MEASURE( 1.000000000000000082E-05 ), #109, 'distance_accuracy_value', 'NONE');
#137 = EDGE_LOOP ( 'NONE', ( #86, #47, #110, #63 ) ) ;
#138 = CALENDAR_DATE ( 2020, 21, 10 ) ;
#139 = CC_DESIGN_APPROVAL ( #169, ( #2 ) ) ;
#140 = VERTEX_POINT ( 'NONE', #131 ) ;
#141 = DIRECTION ( 'NONE',  ( -1.000000000000000000, 0.0000000000000000000, 0.0000000000000000000 ) ) ;
#142 = CC_DESIGN_PERSON_AND_ORGANIZATION_ASSIGNMENT ( #108, #5, ( #9 ) ) ;
#143 = DIRECTION ( 'NONE',  ( 0.0000000000000000000, 0.0000000000000000000, 1.000000000000000000 ) ) ;
#144 = CALENDAR_DATE ( 2020, 21, 10 ) ;
#145 = CIRCLE ( 'NONE', #104, 2.499999999999999556 ) ;
#146 = CARTESIAN_POINT ( 'NONE',  ( 0.0000000000000000000, 0.0000000000000000000, 1.000000000000000000 ) ) ;
#147 = ADVANCED_FACE ( 'NONE', ( #159 ), #127, .T. ) ;
#148 = APPLICATION_PROTOCOL_DEFINITION ( 'international standard', 'config_control_design', 1994, #120 ) ;
#149 = SHAPE_DEFINITION_REPRESENTATION ( #81, #50 ) ;
#150 = ORIENTED_EDGE ( 'NONE', *, *, #170, .F. ) ;
#151 = DIRECTION ( 'NONE',  ( -0.0000000000000000000, -0.0000000000000000000, -1.000000000000000000 ) ) ;
#152 = CIRCLE ( 'NONE', #61, 2.499999999999999556 ) ;
#153 = AXIS2_PLACEMENT_3D ( 'NONE', #146, #56, #96 ) ;
#154 = APPROVAL_ROLE ( '' ) ;
#155 = LOCAL_TIME ( 14, 17, 58.00000000000000000, #125 ) ;
#156 = DESIGN_CONTEXT ( 'detailed design', #120, 'design' ) ;
#157 = EDGE_CURVE ( 'NONE', #140, #17, #72, .T. ) ;
#158 = APPROVAL_PERSON_ORGANIZATION ( #129, #37, #154 ) ;
#159 = FACE_OUTER_BOUND ( 'NONE', #137, .T. ) ;
#160 = EDGE_LOOP ( 'NONE', ( #36, #150, #119, #22 ) ) ;
#161 = AXIS2_PLACEMENT_3D ( 'NONE', #12, #13, #174 ) ;
#162 = DIRECTION ( 'NONE',  ( -0.0000000000000000000, -0.0000000000000000000, -1.000000000000000000 ) ) ;
#163 =( GEOMETRIC_REPRESENTATION_CONTEXT ( 3 ) GLOBAL_UNCERTAINTY_ASSIGNED_CONTEXT ( ( #136 ) ) GLOBAL_UNIT_ASSIGNED_CONTEXT ( ( #109, #29, #106 ) ) REPRESENTATION_CONTEXT ( 'NONE', 'WORKASPACE' ) );
#164 = MECHANICAL_CONTEXT ( 'NONE', #70, 'mechanical' ) ;
#165 = CC_DESIGN_DATE_AND_TIME_ASSIGNMENT ( #77, #1, ( #2 ) ) ;
#166 = VERTEX_POINT ( 'NONE', #68 ) ;
#167 = APPROVAL_ROLE ( '' ) ;
#168 = ORIENTED_EDGE ( 'NONE', *, *, #157, .F. ) ;
#169 = APPROVAL ( #69, 'UNSPECIFIED' ) ;
#170 = EDGE_CURVE ( 'NONE', #78, #166, #145, .T. ) ;
#171 = PERSON_AND_ORGANIZATION ( #8, #35 ) ;
#172 = DIRECTION ( 'NONE',  ( 1.000000000000000000, 0.0000000000000000000, -0.0000000000000000000 ) ) ;
#173 = EDGE_CURVE ( 'NONE', #166, #78, #79, .T. ) ;
#174 = DIRECTION ( 'NONE',  ( 1.000000000000000000, 0.0000000000000000000, -0.0000000000000000000 ) ) ;
#175 = APPLICATION_PROTOCOL_DEFINITION ( 'international standard', 'config_control_design', 1994, #70 ) ;
ENDSEC;
END-ISO-10303-21;
