ISO-10303-21;
HEADER;
FILE_DESCRIPTION (( 'STEP AP203' ),
    '1' );
FILE_NAME ('step_35934.step',
    '2017-05-22T20:25:56',
    ( '' ),
    ( '' ),
    'SwSTEP 2.0',
    'SolidWorks 2016',
    '' );
FILE_SCHEMA (( 'CONFIG_CONTROL_DESIGN' ));
ENDSEC;

DATA;
#1 = SECURITY_CLASSIFICATION ( '', '', #99 ) ;
#2 = PERSON_AND_ORGANIZATION ( #67, #136 ) ;
#3 = VERTEX_POINT ( 'NONE', #123 ) ;
#4 = PRODUCT_DEFINITION ( 'UNKNOWN', '', #179, #211 ) ;
#5 = DIRECTION ( 'NONE',  ( 1.000000000000000000, 0.0000000000000000000, 0.0000000000000000000 ) ) ;
#6 = UNCERTAINTY_MEASURE_WITH_UNIT (LENGTH_MEASURE( 1.000000000000000100E-005 ), #147, 'distance_accuracy_value', 'NONE');
#7 = DATE_AND_TIME ( #10, #11 ) ;
#8 = LINE ( 'NONE', #181, #115 ) ;
#9 = CC_DESIGN_PERSON_AND_ORGANIZATION_ASSIGNMENT ( #17, #119, ( #1 ) ) ;
#10 = CALENDAR_DATE ( 2017, 22, 5 ) ;
#11 = LOCAL_TIME ( 13, 25, 56.00000000000000000, #15 ) ;
#12 = DIRECTION ( 'NONE',  ( -1.387778780781445700E-016, 1.000000000000000000, -0.0000000000000000000 ) ) ;
#13 = CARTESIAN_POINT ( 'NONE',  ( -12.50000000000000000, 12.49999999999999600, 0.0000000000000000000 ) ) ;
#14 = CARTESIAN_POINT ( 'NONE',  ( 12.50000000000000000, 12.49999999999999600, 0.0000000000000000000 ) ) ;
#15 = COORDINATED_UNIVERSAL_TIME_OFFSET ( 7, 0, .BEHIND. ) ;
#16 = ORIENTED_EDGE ( 'NONE', *, *, #156, .F. ) ;
#17 = PERSON_AND_ORGANIZATION ( #67, #136 ) ;
#18 = DIRECTION ( 'NONE',  ( -0.0000000000000000000, 0.0000000000000000000, 1.000000000000000000 ) ) ;
#19 = ADVANCED_FACE ( 'NONE', ( #170 ), #111, .F. ) ;
#20 = APPROVAL_ROLE ( '' ) ;
#21 = CC_DESIGN_PERSON_AND_ORGANIZATION_ASSIGNMENT ( #143, #97, ( #88 ) ) ;
#22 = DATE_TIME_ROLE ( 'classification_date' ) ;
#23 = PERSON_AND_ORGANIZATION ( #67, #136 ) ;
#24 = ORIENTED_EDGE ( 'NONE', *, *, #133, .T. ) ;
#25 = APPLICATION_CONTEXT ( 'configuration controlled 3d designs of mechanical parts and assemblies' ) ;
#26 = EDGE_LOOP ( 'NONE', ( #62, #134, #189, #236 ) ) ;
#27 = CC_DESIGN_DATE_AND_TIME_ASSIGNMENT ( #7, #22, ( #1 ) ) ;
#28 = PERSON_AND_ORGANIZATION ( #67, #136 ) ;
#29 = AXIS2_PLACEMENT_3D ( 'NONE', #117, #130, #5 ) ;
#30 = APPROVAL_DATE_TIME ( #173, #41 ) ;
#31 = APPROVAL_DATE_TIME ( #35, #191 ) ;
#32 = VECTOR ( 'NONE', #52, 1000.000000000000000 ) ;
#33 = ORIENTED_EDGE ( 'NONE', *, *, #198, .T. ) ;
#34 = LINE ( 'NONE', #87, #56 ) ;
#35 = DATE_AND_TIME ( #36, #39 ) ;
#36 = CALENDAR_DATE ( 2017, 22, 5 ) ;
#37 = PLANE ( 'NONE',  #79 ) ;
#38 = DATE_TIME_ROLE ( 'creation_date' ) ;
#39 = LOCAL_TIME ( 13, 25, 56.00000000000000000, #43 ) ;
#40 = APPROVAL_STATUS ( 'not_yet_approved' ) ;
#41 = APPROVAL ( #40, 'UNSPECIFIED' ) ;
#42 = VECTOR ( 'NONE', #185, 1000.000000000000000 ) ;
#43 = COORDINATED_UNIVERSAL_TIME_OFFSET ( 7, 0, .BEHIND. ) ;
#44 = APPROVAL_PERSON_ORGANIZATION ( #45, #191, #61 ) ;
#45 = PERSON_AND_ORGANIZATION ( #67, #136 ) ;
#46 = FACE_OUTER_BOUND ( 'NONE', #89, .T. ) ;
#47 = DATE_AND_TIME ( #74, #53 ) ;
#48 = DIRECTION ( 'NONE',  ( -0.0000000000000000000, -0.0000000000000000000, -1.000000000000000000 ) ) ;
#49 = CC_DESIGN_APPROVAL ( #41, ( #1 ) ) ;
#50 = DIRECTION ( 'NONE',  ( -0.0000000000000000000, 0.0000000000000000000, 1.000000000000000000 ) ) ;
#51 = FACE_OUTER_BOUND ( 'NONE', #83, .T. ) ;
#52 = DIRECTION ( 'NONE',  ( 1.000000000000000000, 0.0000000000000000000, 0.0000000000000000000 ) ) ;
#53 = LOCAL_TIME ( 13, 25, 56.00000000000000000, #206 ) ;
#54 = DIRECTION ( 'NONE',  ( -1.000000000000000000, -1.387778780781445700E-016, 0.0000000000000000000 ) ) ;
#55 = DIRECTION ( 'NONE',  ( 1.000000000000000000, 0.0000000000000000000, 0.0000000000000000000 ) ) ;
#56 = VECTOR ( 'NONE', #220, 1000.000000000000000 ) ;
#57 = LINE ( 'NONE', #124, #75 ) ;
#58 =( NAMED_UNIT ( * ) SI_UNIT ( $, .STERADIAN. ) SOLID_ANGLE_UNIT ( ) );
#59 = APPROVAL_DATE_TIME ( #146, #182 ) ;
#60 = VERTEX_POINT ( 'NONE', #199 ) ;
#61 = APPROVAL_ROLE ( '' ) ;
#62 = ORIENTED_EDGE ( 'NONE', *, *, #139, .T. ) ;
#63 = ORIENTED_EDGE ( 'NONE', *, *, #112, .F. ) ;
#64 = LINE ( 'NONE', #14, #98 ) ;
#65 = LINE ( 'NONE', #158, #104 ) ;
#66 = CC_DESIGN_SECURITY_CLASSIFICATION ( #1, ( #179 ) ) ;
#67 = PERSON ( 'UNSPECIFIED', 'UNSPECIFIED', 'UNSPECIFIED', ('UNSPECIFIED'), ('UNSPECIFIED'), ('UNSPECIFIED') ) ;
#68 = AXIS2_PLACEMENT_3D ( 'NONE', #145, #233, #128 ) ;
#69 = FACE_OUTER_BOUND ( 'NONE', #196, .T. ) ;
#70 = CALENDAR_DATE ( 2017, 22, 5 ) ;
#71 =( GEOMETRIC_REPRESENTATION_CONTEXT ( 3 ) GLOBAL_UNCERTAINTY_ASSIGNED_CONTEXT ( ( #6 ) ) GLOBAL_UNIT_ASSIGNED_CONTEXT ( ( #147, #163, #58 ) ) REPRESENTATION_CONTEXT ( 'NONE', 'WORKASPACE' ) );
#72 = CARTESIAN_POINT ( 'NONE',  ( -12.50000000000000000, 12.49999999999999600, 0.0000000000000000000 ) ) ;
#73 = CARTESIAN_POINT ( 'NONE',  ( 12.50000000000000400, -12.50000000000000200, 0.0000000000000000000 ) ) ;
#74 = CALENDAR_DATE ( 2017, 22, 5 ) ;
#75 = VECTOR ( 'NONE', #159, 1000.000000000000000 ) ;
#76 = LINE ( 'NONE', #114, #32 ) ;
#77 = CARTESIAN_POINT ( 'NONE',  ( 0.0000000000000000000, 0.0000000000000000000, 1.000000000000000000 ) ) ;
#78 = APPLICATION_PROTOCOL_DEFINITION ( 'international standard', 'config_control_design', 1994, #25 ) ;
#79 = AXIS2_PLACEMENT_3D ( 'NONE', #180, #91, #200 ) ;
#80 = PERSON_AND_ORGANIZATION_ROLE ( 'creator' ) ;
#81 = PRODUCT_RELATED_PRODUCT_CATEGORY ( 'detail', '', ( #88 ) ) ;
#82 = ADVANCED_FACE ( 'NONE', ( #228 ), #116, .F. ) ;
#83 = EDGE_LOOP ( 'NONE', ( #230, #33, #24, #208 ) ) ;
#84 = COORDINATED_UNIVERSAL_TIME_OFFSET ( 7, 0, .BEHIND. ) ;
#85 = ORIENTED_EDGE ( 'NONE', *, *, #121, .T. ) ;
#86 = AXIS2_PLACEMENT_3D ( 'NONE', #216, #50, #162 ) ;
#87 = CARTESIAN_POINT ( 'NONE',  ( 12.50000000000000400, -12.50000000000000200, 1.000000000000000000 ) ) ;
#88 = PRODUCT ( 'step_35934', 'step_35934', '', ( #222 ) ) ;
#89 = EDGE_LOOP ( 'NONE', ( #193, #225, #232, #231 ) ) ;
#90 = EDGE_CURVE ( 'NONE', #60, #3, #127, .T. ) ;
#91 = DIRECTION ( 'NONE',  ( 0.0000000000000000000, 1.000000000000000000, 0.0000000000000000000 ) ) ;
#92 = ADVANCED_FACE ( 'NONE', ( #51 ), #221, .T. ) ;
#93 = ADVANCED_FACE ( 'NONE', ( #46 ), #129, .F. ) ;
#94 = DIRECTION ( 'NONE',  ( 1.387778780781445700E-016, -1.000000000000000000, 0.0000000000000000000 ) ) ;
#95 = CARTESIAN_POINT ( 'NONE',  ( 12.50000000000000000, 12.49999999999999600, 1.000000000000000000 ) ) ;
#96 = CARTESIAN_POINT ( 'NONE',  ( -12.49999999999999600, -12.50000000000000200, 1.000000000000000000 ) ) ;
#97 = PERSON_AND_ORGANIZATION_ROLE ( 'design_owner' ) ;
#98 = VECTOR ( 'NONE', #203, 1000.000000000000000 ) ;
#99 = SECURITY_CLASSIFICATION_LEVEL ( 'unclassified' ) ;
#100 = AXIS2_PLACEMENT_3D ( 'NONE', #219, #197, #223 ) ;
#101 = ADVANCED_BREP_SHAPE_REPRESENTATION ( 'step_35934', ( #224, #29 ), #71 ) ;
#102 = AXIS2_PLACEMENT_3D ( 'NONE', #77, #18, #55 ) ;
#103 = VECTOR ( 'NONE', #174, 1000.000000000000000 ) ;
#104 = VECTOR ( 'NONE', #12, 1000.000000000000000 ) ;
#105 = VECTOR ( 'NONE', #186, 1000.000000000000000 ) ;
#106 = ADVANCED_FACE ( 'NONE', ( #69 ), #37, .F. ) ;
#107 = LINE ( 'NONE', #161, #105 ) ;
#108 = VECTOR ( 'NONE', #94, 1000.000000000000000 ) ;
#109 = LINE ( 'NONE', #201, #42 ) ;
#110 = FACE_OUTER_BOUND ( 'NONE', #26, .T. ) ;
#111 = PLANE ( 'NONE',  #86 ) ;
#112 = EDGE_CURVE ( 'NONE', #3, #192, #57, .T. ) ;
#113 = LINE ( 'NONE', #13, #108 ) ;
#114 = CARTESIAN_POINT ( 'NONE',  ( -12.49999999999999600, -12.50000000000000200, 0.0000000000000000000 ) ) ;
#115 = VECTOR ( 'NONE', #176, 1000.000000000000000 ) ;
#116 = PLANE ( 'NONE',  #177 ) ;
#117 = CARTESIAN_POINT ( 'NONE',  ( 0.0000000000000000000, 0.0000000000000000000, 0.0000000000000000000 ) ) ;
#118 = APPLICATION_CONTEXT ( 'configuration controlled 3d designs of mechanical parts and assemblies' ) ;
#119 = PERSON_AND_ORGANIZATION_ROLE ( 'classification_officer' ) ;
#120 = EDGE_CURVE ( 'NONE', #226, #154, #132, .T. ) ;
#121 = EDGE_CURVE ( 'NONE', #154, #152, #76, .T. ) ;
#122 = VECTOR ( 'NONE', #48, 1000.000000000000000 ) ;
#123 = CARTESIAN_POINT ( 'NONE',  ( 12.50000000000000000, 12.49999999999999600, 0.0000000000000000000 ) ) ;
#124 = CARTESIAN_POINT ( 'NONE',  ( -12.50000000000000000, 12.49999999999999600, 0.0000000000000000000 ) ) ;
#125 = ADVANCED_FACE ( 'NONE', ( #110 ), #217, .F. ) ;
#126 = EDGE_CURVE ( 'NONE', #60, #188, #8, .T. ) ;
#127 = LINE ( 'NONE', #95, #122 ) ;
#128 = DIRECTION ( 'NONE',  ( -1.387778780781445700E-016, 1.000000000000000000, 0.0000000000000000000 ) ) ;
#129 = PLANE ( 'NONE',  #100 ) ;
#130 = DIRECTION ( 'NONE',  ( 0.0000000000000000000, 0.0000000000000000000, 1.000000000000000000 ) ) ;
#131 = APPROVAL_STATUS ( 'not_yet_approved' ) ;
#132 = LINE ( 'NONE', #235, #168 ) ;
#133 = EDGE_CURVE ( 'NONE', #135, #60, #65, .T. ) ;
#134 = ORIENTED_EDGE ( 'NONE', *, *, #120, .F. ) ;
#135 = VERTEX_POINT ( 'NONE', #140 ) ;
#136 = ORGANIZATION ( 'UNSPECIFIED', 'UNSPECIFIED', '' ) ;
#137 = SHAPE_DEFINITION_REPRESENTATION ( #165, #101 ) ;
#138 = ORIENTED_EDGE ( 'NONE', *, *, #90, .F. ) ;
#139 = EDGE_CURVE ( 'NONE', #192, #154, #113, .T. ) ;
#140 = CARTESIAN_POINT ( 'NONE',  ( 12.50000000000000400, -12.50000000000000200, 1.000000000000000000 ) ) ;
#141 = CALENDAR_DATE ( 2017, 22, 5 ) ;
#142 = CC_DESIGN_APPROVAL ( #182, ( #4 ) ) ;
#143 = PERSON_AND_ORGANIZATION ( #67, #136 ) ;
#144 = CARTESIAN_POINT ( 'NONE',  ( -12.50000000000000000, 12.49999999999999600, 1.000000000000000000 ) ) ;
#145 = CARTESIAN_POINT ( 'NONE',  ( -12.50000000000000000, 12.49999999999999600, 1.000000000000000000 ) ) ;
#146 = DATE_AND_TIME ( #141, #171 ) ;
#147 =( LENGTH_UNIT ( ) NAMED_UNIT ( * ) SI_UNIT ( .MILLI., .METRE. ) );
#148 = ORIENTED_EDGE ( 'NONE', *, *, #133, .F. ) ;
#149 = APPROVAL_PERSON_ORGANIZATION ( #2, #41, #166 ) ;
#150 = PERSON_AND_ORGANIZATION_ROLE ( 'creator' ) ;
#151 = CC_DESIGN_PERSON_AND_ORGANIZATION_ASSIGNMENT ( #169, #150, ( #4 ) ) ;
#152 = VERTEX_POINT ( 'NONE', #73 ) ;
#153 = DIRECTION ( 'NONE',  ( -0.0000000000000000000, -0.0000000000000000000, -1.000000000000000000 ) ) ;
#154 = VERTEX_POINT ( 'NONE', #183 ) ;
#155 = APPROVAL_PERSON_ORGANIZATION ( #175, #182, #20 ) ;
#156 = EDGE_CURVE ( 'NONE', #152, #3, #64, .T. ) ;
#157 = EDGE_LOOP ( 'NONE', ( #229, #63, #16, #215 ) ) ;
#158 = CARTESIAN_POINT ( 'NONE',  ( 12.50000000000000000, 12.49999999999999600, 1.000000000000000000 ) ) ;
#159 = DIRECTION ( 'NONE',  ( -1.000000000000000000, -0.0000000000000000000, -0.0000000000000000000 ) ) ;
#160 = COORDINATED_UNIVERSAL_TIME_OFFSET ( 7, 0, .BEHIND. ) ;
#161 = CARTESIAN_POINT ( 'NONE',  ( -12.49999999999999600, -12.50000000000000200, 1.000000000000000000 ) ) ;
#162 = DIRECTION ( 'NONE',  ( 1.000000000000000000, 0.0000000000000000000, 0.0000000000000000000 ) ) ;
#163 =( NAMED_UNIT ( * ) PLANE_ANGLE_UNIT ( ) SI_UNIT ( $, .RADIAN. ) );
#164 = APPROVAL_STATUS ( 'not_yet_approved' ) ;
#165 = PRODUCT_DEFINITION_SHAPE ( 'NONE', 'NONE',  #4 ) ;
#166 = APPROVAL_ROLE ( '' ) ;
#167 = CC_DESIGN_DATE_AND_TIME_ASSIGNMENT ( #47, #38, ( #4 ) ) ;
#168 = VECTOR ( 'NONE', #153, 1000.000000000000000 ) ;
#169 = PERSON_AND_ORGANIZATION ( #67, #136 ) ;
#170 = FACE_OUTER_BOUND ( 'NONE', #157, .T. ) ;
#171 = LOCAL_TIME ( 13, 25, 56.00000000000000000, #160 ) ;
#172 = LOCAL_TIME ( 13, 25, 56.00000000000000000, #84 ) ;
#173 = DATE_AND_TIME ( #70, #172 ) ;
#174 = DIRECTION ( 'NONE',  ( 1.387778780781445700E-016, -1.000000000000000000, 0.0000000000000000000 ) ) ;
#175 = PERSON_AND_ORGANIZATION ( #67, #136 ) ;
#176 = DIRECTION ( 'NONE',  ( -1.000000000000000000, -0.0000000000000000000, -0.0000000000000000000 ) ) ;
#177 = AXIS2_PLACEMENT_3D ( 'NONE', #202, #54, #178 ) ;
#178 = DIRECTION ( 'NONE',  ( 1.387778780781445700E-016, -1.000000000000000000, 0.0000000000000000000 ) ) ;
#179 = PRODUCT_DEFINITION_FORMATION_WITH_SPECIFIED_SOURCE ( 'ANY', '', #88, .NOT_KNOWN. ) ;
#180 = CARTESIAN_POINT ( 'NONE',  ( -12.49999999999999600, -12.50000000000000200, 1.000000000000000000 ) ) ;
#181 = CARTESIAN_POINT ( 'NONE',  ( -12.50000000000000000, 12.49999999999999600, 1.000000000000000000 ) ) ;
#182 = APPROVAL ( #131, 'UNSPECIFIED' ) ;
#183 = CARTESIAN_POINT ( 'NONE',  ( -12.49999999999999600, -12.50000000000000200, 0.0000000000000000000 ) ) ;
#184 = EDGE_LOOP ( 'NONE', ( #209, #138, #148, #212 ) ) ;
#185 = DIRECTION ( 'NONE',  ( -0.0000000000000000000, -0.0000000000000000000, -1.000000000000000000 ) ) ;
#186 = DIRECTION ( 'NONE',  ( 1.000000000000000000, 0.0000000000000000000, 0.0000000000000000000 ) ) ;
#187 = ORIENTED_EDGE ( 'NONE', *, *, #120, .T. ) ;
#188 = VERTEX_POINT ( 'NONE', #144 ) ;
#189 = ORIENTED_EDGE ( 'NONE', *, *, #194, .F. ) ;
#190 = ORIENTED_EDGE ( 'NONE', *, *, #198, .F. ) ;
#191 = APPROVAL ( #164, 'UNSPECIFIED' ) ;
#192 = VERTEX_POINT ( 'NONE', #72 ) ;
#193 = ORIENTED_EDGE ( 'NONE', *, *, #112, .T. ) ;
#194 = EDGE_CURVE ( 'NONE', #188, #226, #214, .T. ) ;
#195 = EDGE_CURVE ( 'NONE', #135, #152, #34, .T. ) ;
#196 = EDGE_LOOP ( 'NONE', ( #85, #213, #190, #187 ) ) ;
#197 = DIRECTION ( 'NONE',  ( 0.0000000000000000000, -1.000000000000000000, 0.0000000000000000000 ) ) ;
#198 = EDGE_CURVE ( 'NONE', #226, #135, #107, .T. ) ;
#199 = CARTESIAN_POINT ( 'NONE',  ( 12.50000000000000000, 12.49999999999999600, 1.000000000000000000 ) ) ;
#200 = DIRECTION ( 'NONE',  ( 0.0000000000000000000, -0.0000000000000000000, 1.000000000000000000 ) ) ;
#201 = CARTESIAN_POINT ( 'NONE',  ( -12.50000000000000000, 12.49999999999999600, 1.000000000000000000 ) ) ;
#202 = CARTESIAN_POINT ( 'NONE',  ( 12.50000000000000000, 12.49999999999999600, 1.000000000000000000 ) ) ;
#203 = DIRECTION ( 'NONE',  ( -1.387778780781445700E-016, 1.000000000000000000, -0.0000000000000000000 ) ) ;
#204 = PERSON_AND_ORGANIZATION_ROLE ( 'design_supplier' ) ;
#205 = CC_DESIGN_APPROVAL ( #191, ( #179 ) ) ;
#206 = COORDINATED_UNIVERSAL_TIME_OFFSET ( 7, 0, .BEHIND. ) ;
#207 = CLOSED_SHELL ( 'NONE', ( #125, #106, #82, #93, #92, #19 ) ) ;
#208 = ORIENTED_EDGE ( 'NONE', *, *, #126, .T. ) ;
#209 = ORIENTED_EDGE ( 'NONE', *, *, #156, .T. ) ;
#210 = EDGE_CURVE ( 'NONE', #188, #192, #109, .T. ) ;
#211 = DESIGN_CONTEXT ( 'detailed design', #118, 'design' ) ;
#212 = ORIENTED_EDGE ( 'NONE', *, *, #195, .T. ) ;
#213 = ORIENTED_EDGE ( 'NONE', *, *, #195, .F. ) ;
#214 = LINE ( 'NONE', #234, #103 ) ;
#215 = ORIENTED_EDGE ( 'NONE', *, *, #121, .F. ) ;
#216 = CARTESIAN_POINT ( 'NONE',  ( 0.0000000000000000000, 0.0000000000000000000, 0.0000000000000000000 ) ) ;
#217 = PLANE ( 'NONE',  #68 ) ;
#218 = CC_DESIGN_PERSON_AND_ORGANIZATION_ASSIGNMENT ( #28, #80, ( #179 ) ) ;
#219 = CARTESIAN_POINT ( 'NONE',  ( -12.50000000000000000, 12.49999999999999600, 1.000000000000000000 ) ) ;
#220 = DIRECTION ( 'NONE',  ( -0.0000000000000000000, -0.0000000000000000000, -1.000000000000000000 ) ) ;
#221 = PLANE ( 'NONE',  #102 ) ;
#222 = MECHANICAL_CONTEXT ( 'NONE', #25, 'mechanical' ) ;
#223 = DIRECTION ( 'NONE',  ( 0.0000000000000000000, -0.0000000000000000000, -1.000000000000000000 ) ) ;
#224 = MANIFOLD_SOLID_BREP ( 'Boss-Extrude1', #207 ) ;
#225 = ORIENTED_EDGE ( 'NONE', *, *, #210, .F. ) ;
#226 = VERTEX_POINT ( 'NONE', #96 ) ;
#227 = CC_DESIGN_PERSON_AND_ORGANIZATION_ASSIGNMENT ( #23, #204, ( #179 ) ) ;
#228 = FACE_OUTER_BOUND ( 'NONE', #184, .T. ) ;
#229 = ORIENTED_EDGE ( 'NONE', *, *, #139, .F. ) ;
#230 = ORIENTED_EDGE ( 'NONE', *, *, #194, .T. ) ;
#231 = ORIENTED_EDGE ( 'NONE', *, *, #90, .T. ) ;
#232 = ORIENTED_EDGE ( 'NONE', *, *, #126, .F. ) ;
#233 = DIRECTION ( 'NONE',  ( 1.000000000000000000, 1.387778780781445700E-016, -0.0000000000000000000 ) ) ;
#234 = CARTESIAN_POINT ( 'NONE',  ( -12.50000000000000000, 12.49999999999999600, 1.000000000000000000 ) ) ;
#235 = CARTESIAN_POINT ( 'NONE',  ( -12.49999999999999600, -12.50000000000000200, 1.000000000000000000 ) ) ;
#236 = ORIENTED_EDGE ( 'NONE', *, *, #210, .T. ) ;
#237 = APPLICATION_PROTOCOL_DEFINITION ( 'international standard', 'config_control_design', 1994, #118 ) ;
ENDSEC;
END-ISO-10303-21;
