ISO-10303-21;
HEADER;
FILE_DESCRIPTION (( 'STEP AP203' ),
    '1' );
FILE_NAME ('Web Model 84468.STEP',
    '2017-02-01T15:46:55',
    ( '' ),
    ( '' ),
    'SwSTEP 2.0',
    'SolidWorks 2016',
    '' );
FILE_SCHEMA (( 'CONFIG_CONTROL_DESIGN' ));
ENDSEC;

DATA;
#1 = AXIS2_PLACEMENT_3D ( 'NONE', #75, #10, #84 ) ;
#2 = DATE_AND_TIME ( #55, #129 ) ;
#3 = PERSON_AND_ORGANIZATION ( #6, #21 ) ;
#4 = ORIENTED_EDGE ( 'NONE', *, *, #89, .T. ) ;
#5 = COORDINATED_UNIVERSAL_TIME_OFFSET ( 5, 0, .BEHIND. ) ;
#6 = PERSON ( 'UNSPECIFIED', 'UNSPECIFIED', 'UNSPECIFIED', ('UNSPECIFIED'), ('UNSPECIFIED'), ('UNSPECIFIED') ) ;
#7 = PLANE ( 'NONE',  #100 ) ;
#8 = CARTESIAN_POINT ( 'NONE',  ( 0.0000000000000000000, 0.0000000000000000000, 0.0000000000000000000 ) ) ;
#9 = VERTEX_POINT ( 'NONE', #125 ) ;
#10 = DIRECTION ( 'NONE',  ( 0.0000000000000000000, 0.0000000000000000000, 1.000000000000000000 ) ) ;
#11 = SECURITY_CLASSIFICATION ( '', '', #79 ) ;
#12 = CYLINDRICAL_SURFACE ( 'NONE', #128, 25.00000000000000000 ) ;
#13 = ADVANCED_FACE ( 'NONE', ( #136 ), #7, .F. ) ;
#14 =( LENGTH_UNIT ( ) NAMED_UNIT ( * ) SI_UNIT ( .MILLI., .METRE. ) );
#15 = COORDINATED_UNIVERSAL_TIME_OFFSET ( 5, 0, .BEHIND. ) ;
#16 = APPROVAL_STATUS ( 'not_yet_approved' ) ;
#17 = DATE_AND_TIME ( #108, #59 ) ;
#18 = CC_DESIGN_APPROVAL ( #41, ( #165 ) ) ;
#19 = VERTEX_POINT ( 'NONE', #42 ) ;
#20 = CLOSED_SHELL ( 'NONE', ( #96, #51, #113, #13 ) ) ;
#21 = ORGANIZATION ( 'UNSPECIFIED', 'UNSPECIFIED', '' ) ;
#22 = DIRECTION ( 'NONE',  ( 1.000000000000000000, 0.0000000000000000000, 0.0000000000000000000 ) ) ;
#23 = CARTESIAN_POINT ( 'NONE',  ( 25.00000000000000000, 3.061616997868383000E-015, 5.000000000000000000 ) ) ;
#24 = VERTEX_POINT ( 'NONE', #111 ) ;
#25 = PERSON_AND_ORGANIZATION_ROLE ( 'classification_officer' ) ;
#26 = APPROVAL ( #16, 'UNSPECIFIED' ) ;
#27 = FACE_OUTER_BOUND ( 'NONE', #35, .T. ) ;
#28 = DATE_AND_TIME ( #69, #105 ) ;
#29 = CARTESIAN_POINT ( 'NONE',  ( 0.0000000000000000000, 0.0000000000000000000, 5.000000000000000000 ) ) ;
#30 = LINE ( 'NONE', #31, #53 ) ;
#31 = CARTESIAN_POINT ( 'NONE',  ( -25.00000000000000000, 0.0000000000000000000, 5.000000000000000000 ) ) ;
#32 = DIRECTION ( 'NONE',  ( 0.0000000000000000000, 0.0000000000000000000, 1.000000000000000000 ) ) ;
#33 = ORIENTED_EDGE ( 'NONE', *, *, #120, .T. ) ;
#34 = CARTESIAN_POINT ( 'NONE',  ( 0.0000000000000000000, 0.0000000000000000000, 5.000000000000000000 ) ) ;
#35 = EDGE_LOOP ( 'NONE', ( #162, #117, #138, #4 ) ) ;
#36 = DIRECTION ( 'NONE',  ( 0.0000000000000000000, 0.0000000000000000000, 1.000000000000000000 ) ) ;
#37 = APPLICATION_CONTEXT ( 'configuration controlled 3d designs of mechanical parts and assemblies' ) ;
#38 = PRODUCT_DEFINITION_SHAPE ( 'NONE', 'NONE',  #81 ) ;
#39 = APPROVAL_PERSON_ORGANIZATION ( #133, #87, #145 ) ;
#40 = CIRCLE ( 'NONE', #150, 25.00000000000000000 ) ;
#41 = APPROVAL ( #52, 'UNSPECIFIED' ) ;
#42 = CARTESIAN_POINT ( 'NONE',  ( 25.00000000000000000, 3.061616997868383000E-015, 0.0000000000000000000 ) ) ;
#43 = EDGE_LOOP ( 'NONE', ( #72, #33, #122, #142 ) ) ;
#44 = PERSON_AND_ORGANIZATION ( #6, #21 ) ;
#45 = CARTESIAN_POINT ( 'NONE',  ( -25.00000000000000000, 0.0000000000000000000, 0.0000000000000000000 ) ) ;
#46 = DIRECTION ( 'NONE',  ( -1.000000000000000000, 0.0000000000000000000, 0.0000000000000000000 ) ) ;
#47 = COORDINATED_UNIVERSAL_TIME_OFFSET ( 5, 0, .BEHIND. ) ;
#48 = CARTESIAN_POINT ( 'NONE',  ( 0.0000000000000000000, 0.0000000000000000000, 0.0000000000000000000 ) ) ;
#49 = CC_DESIGN_PERSON_AND_ORGANIZATION_ASSIGNMENT ( #94, #104, ( #165 ) ) ;
#50 = DIRECTION ( 'NONE',  ( 0.0000000000000000000, 0.0000000000000000000, 1.000000000000000000 ) ) ;
#51 = ADVANCED_FACE ( 'NONE', ( #27 ), #68, .T. ) ;
#52 = APPROVAL_STATUS ( 'not_yet_approved' ) ;
#53 = VECTOR ( 'NONE', #127, 1000.000000000000000 ) ;
#54 = AXIS2_PLACEMENT_3D ( 'NONE', #34, #32, #22 ) ;
#55 = CALENDAR_DATE ( 2017, 1, 2 ) ;
#56 = EDGE_LOOP ( 'NONE', ( #65, #93 ) ) ;
#57 = DIRECTION ( 'NONE',  ( 1.000000000000000000, 0.0000000000000000000, -0.0000000000000000000 ) ) ;
#58 = ORIENTED_EDGE ( 'NONE', *, *, #109, .T. ) ;
#59 = LOCAL_TIME ( 10, 46, 55.00000000000000000, #47 ) ;
#60 = CC_DESIGN_DATE_AND_TIME_ASSIGNMENT ( #17, #161, ( #81 ) ) ;
#61 = DIRECTION ( 'NONE',  ( 1.000000000000000000, 0.0000000000000000000, 0.0000000000000000000 ) ) ;
#62 = DIRECTION ( 'NONE',  ( 0.0000000000000000000, 0.0000000000000000000, 1.000000000000000000 ) ) ;
#63 = PERSON_AND_ORGANIZATION ( #6, #21 ) ;
#64 = DIRECTION ( 'NONE',  ( 1.000000000000000000, 0.0000000000000000000, -0.0000000000000000000 ) ) ;
#65 = ORIENTED_EDGE ( 'NONE', *, *, #89, .F. ) ;
#66 = PERSON_AND_ORGANIZATION_ROLE ( 'creator' ) ;
#67 = AXIS2_PLACEMENT_3D ( 'NONE', #95, #50, #159 ) ;
#68 = CYLINDRICAL_SURFACE ( 'NONE', #137, 25.00000000000000000 ) ;
#69 = CALENDAR_DATE ( 2017, 1, 2 ) ;
#70 = CALENDAR_DATE ( 2017, 1, 2 ) ;
#71 = PRODUCT ( 'Web Model 84468', 'Web Model 84468', '', ( #160 ) ) ;
#72 = ORIENTED_EDGE ( 'NONE', *, *, #121, .F. ) ;
#73 = CC_DESIGN_PERSON_AND_ORGANIZATION_ASSIGNMENT ( #149, #143, ( #71 ) ) ;
#74 = EDGE_LOOP ( 'NONE', ( #58, #102 ) ) ;
#75 = CARTESIAN_POINT ( 'NONE',  ( 0.0000000000000000000, 0.0000000000000000000, 0.0000000000000000000 ) ) ;
#76 = FACE_OUTER_BOUND ( 'NONE', #43, .T. ) ;
#77 = PERSON_AND_ORGANIZATION ( #6, #21 ) ;
#78 = CARTESIAN_POINT ( 'NONE',  ( 0.0000000000000000000, 0.0000000000000000000, 5.000000000000000000 ) ) ;
#79 = SECURITY_CLASSIFICATION_LEVEL ( 'unclassified' ) ;
#80 = APPROVAL_DATE_TIME ( #2, #87 ) ;
#81 = PRODUCT_DEFINITION ( 'UNKNOWN', '', #165, #153 ) ;
#82 = CALENDAR_DATE ( 2017, 1, 2 ) ;
#83 = CC_DESIGN_PERSON_AND_ORGANIZATION_ASSIGNMENT ( #44, #25, ( #11 ) ) ;
#84 = DIRECTION ( 'NONE',  ( 1.000000000000000000, 0.0000000000000000000, 0.0000000000000000000 ) ) ;
#85 = CARTESIAN_POINT ( 'NONE',  ( 0.0000000000000000000, 0.0000000000000000000, 5.000000000000000000 ) ) ;
#86 = VERTEX_POINT ( 'NONE', #45 ) ;
#87 = APPROVAL ( #131, 'UNSPECIFIED' ) ;
#88 = COORDINATED_UNIVERSAL_TIME_OFFSET ( 5, 0, .BEHIND. ) ;
#89 = EDGE_CURVE ( 'NONE', #86, #19, #107, .T. ) ;
#90 =( NAMED_UNIT ( * ) SI_UNIT ( $, .STERADIAN. ) SOLID_ANGLE_UNIT ( ) );
#91 = CC_DESIGN_PERSON_AND_ORGANIZATION_ASSIGNMENT ( #63, #172, ( #165 ) ) ;
#92 = VECTOR ( 'NONE', #167, 1000.000000000000000 ) ;
#93 = ORIENTED_EDGE ( 'NONE', *, *, #146, .F. ) ;
#94 = PERSON_AND_ORGANIZATION ( #6, #21 ) ;
#95 = CARTESIAN_POINT ( 'NONE',  ( 0.0000000000000000000, 0.0000000000000000000, 0.0000000000000000000 ) ) ;
#96 = ADVANCED_FACE ( 'NONE', ( #76 ), #12, .T. ) ;
#97 = DATE_AND_TIME ( #70, #151 ) ;
#98 = APPROVAL_PERSON_ORGANIZATION ( #3, #26, #173 ) ;
#99 = CARTESIAN_POINT ( 'NONE',  ( 0.0000000000000000000, 0.0000000000000000000, 5.000000000000000000 ) ) ;
#100 = AXIS2_PLACEMENT_3D ( 'NONE', #8, #110, #57 ) ;
#101 = APPLICATION_PROTOCOL_DEFINITION ( 'international standard', 'config_control_design', 1994, #116 ) ;
#102 = ORIENTED_EDGE ( 'NONE', *, *, #121, .T. ) ;
#103 = APPROVAL_DATE_TIME ( #139, #26 ) ;
#104 = PERSON_AND_ORGANIZATION_ROLE ( 'creator' ) ;
#105 = LOCAL_TIME ( 10, 46, 55.00000000000000000, #5 ) ;
#106 = CC_DESIGN_PERSON_AND_ORGANIZATION_ASSIGNMENT ( #170, #66, ( #81 ) ) ;
#107 = CIRCLE ( 'NONE', #1, 25.00000000000000000 ) ;
#108 = CALENDAR_DATE ( 2017, 1, 2 ) ;
#109 = EDGE_CURVE ( 'NONE', #9, #24, #148, .T. ) ;
#110 = DIRECTION ( 'NONE',  ( 0.0000000000000000000, 0.0000000000000000000, 1.000000000000000000 ) ) ;
#111 = CARTESIAN_POINT ( 'NONE',  ( 25.00000000000000000, 3.061616997868383000E-015, 5.000000000000000000 ) ) ;
#112 = PLANE ( 'NONE',  #132 ) ;
#113 = ADVANCED_FACE ( 'NONE', ( #169 ), #112, .T. ) ;
#114 = AXIS2_PLACEMENT_3D ( 'NONE', #48, #36, #130 ) ;
#115 = DATE_TIME_ROLE ( 'classification_date' ) ;
#116 = APPLICATION_CONTEXT ( 'configuration controlled 3d designs of mechanical parts and assemblies' ) ;
#117 = ORIENTED_EDGE ( 'NONE', *, *, #109, .F. ) ;
#118 = LOCAL_TIME ( 10, 46, 55.00000000000000000, #88 ) ;
#119 = SHAPE_DEFINITION_REPRESENTATION ( #38, #147 ) ;
#120 = EDGE_CURVE ( 'NONE', #24, #19, #126, .T. ) ;
#121 = EDGE_CURVE ( 'NONE', #24, #9, #40, .T. ) ;
#122 = ORIENTED_EDGE ( 'NONE', *, *, #146, .T. ) ;
#123 = PRODUCT_RELATED_PRODUCT_CATEGORY ( 'detail', '', ( #71 ) ) ;
#124 = DIRECTION ( 'NONE',  ( -0.0000000000000000000, -0.0000000000000000000, -1.000000000000000000 ) ) ;
#125 = CARTESIAN_POINT ( 'NONE',  ( -25.00000000000000000, 0.0000000000000000000, 5.000000000000000000 ) ) ;
#126 = LINE ( 'NONE', #23, #92 ) ;
#127 = DIRECTION ( 'NONE',  ( -0.0000000000000000000, -0.0000000000000000000, -1.000000000000000000 ) ) ;
#128 = AXIS2_PLACEMENT_3D ( 'NONE', #85, #154, #46 ) ;
#129 = LOCAL_TIME ( 10, 46, 55.00000000000000000, #164 ) ;
#130 = DIRECTION ( 'NONE',  ( 1.000000000000000000, 0.0000000000000000000, 0.0000000000000000000 ) ) ;
#131 = APPROVAL_STATUS ( 'not_yet_approved' ) ;
#132 = AXIS2_PLACEMENT_3D ( 'NONE', #99, #62, #64 ) ;
#133 = PERSON_AND_ORGANIZATION ( #6, #21 ) ;
#134 = APPROVAL_DATE_TIME ( #28, #41 ) ;
#135 =( GEOMETRIC_REPRESENTATION_CONTEXT ( 3 ) GLOBAL_UNCERTAINTY_ASSIGNED_CONTEXT ( ( #174 ) ) GLOBAL_UNIT_ASSIGNED_CONTEXT ( ( #14, #171, #90 ) ) REPRESENTATION_CONTEXT ( 'NONE', 'WORKASPACE' ) );
#136 = FACE_OUTER_BOUND ( 'NONE', #56, .T. ) ;
#137 = AXIS2_PLACEMENT_3D ( 'NONE', #29, #124, #140 ) ;
#138 = ORIENTED_EDGE ( 'NONE', *, *, #166, .T. ) ;
#139 = DATE_AND_TIME ( #82, #118 ) ;
#140 = DIRECTION ( 'NONE',  ( -1.000000000000000000, 0.0000000000000000000, 0.0000000000000000000 ) ) ;
#141 = MANIFOLD_SOLID_BREP ( 'Extrude1', #20 ) ;
#142 = ORIENTED_EDGE ( 'NONE', *, *, #166, .F. ) ;
#143 = PERSON_AND_ORGANIZATION_ROLE ( 'design_owner' ) ;
#144 = APPLICATION_PROTOCOL_DEFINITION ( 'international standard', 'config_control_design', 1994, #37 ) ;
#145 = APPROVAL_ROLE ( '' ) ;
#146 = EDGE_CURVE ( 'NONE', #19, #86, #156, .T. ) ;
#147 = ADVANCED_BREP_SHAPE_REPRESENTATION ( 'Web Model 84468', ( #141, #114 ), #135 ) ;
#148 = CIRCLE ( 'NONE', #54, 25.00000000000000000 ) ;
#149 = PERSON_AND_ORGANIZATION ( #6, #21 ) ;
#150 = AXIS2_PLACEMENT_3D ( 'NONE', #78, #157, #61 ) ;
#151 = LOCAL_TIME ( 10, 46, 55.00000000000000000, #15 ) ;
#152 = APPROVAL_PERSON_ORGANIZATION ( #77, #41, #175 ) ;
#153 = DESIGN_CONTEXT ( 'detailed design', #116, 'design' ) ;
#154 = DIRECTION ( 'NONE',  ( -0.0000000000000000000, -0.0000000000000000000, -1.000000000000000000 ) ) ;
#155 = CC_DESIGN_DATE_AND_TIME_ASSIGNMENT ( #97, #115, ( #11 ) ) ;
#156 = CIRCLE ( 'NONE', #67, 25.00000000000000000 ) ;
#157 = DIRECTION ( 'NONE',  ( 0.0000000000000000000, 0.0000000000000000000, 1.000000000000000000 ) ) ;
#158 = CC_DESIGN_SECURITY_CLASSIFICATION ( #11, ( #165 ) ) ;
#159 = DIRECTION ( 'NONE',  ( 1.000000000000000000, 0.0000000000000000000, 0.0000000000000000000 ) ) ;
#160 = MECHANICAL_CONTEXT ( 'NONE', #37, 'mechanical' ) ;
#161 = DATE_TIME_ROLE ( 'creation_date' ) ;
#162 = ORIENTED_EDGE ( 'NONE', *, *, #120, .F. ) ;
#163 = CC_DESIGN_APPROVAL ( #26, ( #81 ) ) ;
#164 = COORDINATED_UNIVERSAL_TIME_OFFSET ( 5, 0, .BEHIND. ) ;
#165 = PRODUCT_DEFINITION_FORMATION_WITH_SPECIFIED_SOURCE ( 'ANY', '', #71, .NOT_KNOWN. ) ;
#166 = EDGE_CURVE ( 'NONE', #9, #86, #30, .T. ) ;
#167 = DIRECTION ( 'NONE',  ( -0.0000000000000000000, -0.0000000000000000000, -1.000000000000000000 ) ) ;
#168 = CC_DESIGN_APPROVAL ( #87, ( #11 ) ) ;
#169 = FACE_OUTER_BOUND ( 'NONE', #74, .T. ) ;
#170 = PERSON_AND_ORGANIZATION ( #6, #21 ) ;
#171 =( NAMED_UNIT ( * ) PLANE_ANGLE_UNIT ( ) SI_UNIT ( $, .RADIAN. ) );
#172 = PERSON_AND_ORGANIZATION_ROLE ( 'design_supplier' ) ;
#173 = APPROVAL_ROLE ( '' ) ;
#174 = UNCERTAINTY_MEASURE_WITH_UNIT (LENGTH_MEASURE( 1.000000000000000100E-005 ), #14, 'distance_accuracy_value', 'NONE');
#175 = APPROVAL_ROLE ( '' ) ;
ENDSEC;
END-ISO-10303-21;
