ISO-10303-21;
HEADER;
FILE_DESCRIPTION (( 'STEP AP203' ),
    '1' );
FILE_NAME ('Web Model 43636_20903.step',
    '2022-03-16T15:38:02',
    ( '' ),
    ( '' ),
    'SwSTEP 2.0',
    'SolidWorks 2021',
    '' );
FILE_SCHEMA (( 'CONFIG_CONTROL_DESIGN' ));
ENDSEC;

DATA;
#1 = PERSON_AND_ORGANIZATION ( #163, #14 ) ;
#2 = VERTEX_POINT ( 'NONE', #124 ) ;
#3 = DATE_AND_TIME ( #27, #64 ) ;
#4 = PLANE ( 'NONE',  #164 ) ;
#5 = VECTOR ( 'NONE', #18, 1000.000000000000000 ) ;
#6 = LOCAL_TIME ( 11, 38, 2.000000000000000000, #12 ) ;
#7 = CARTESIAN_POINT ( 'NONE',  ( 12.69999999999999929, 1.555301434917138433E-15, 1.000000000000000000 ) ) ;
#8 = DIRECTION ( 'NONE',  ( 1.000000000000000000, 0.000000000000000000, 0.000000000000000000 ) ) ;
#9 = DIRECTION ( 'NONE',  ( -0.000000000000000000, -0.000000000000000000, -1.000000000000000000 ) ) ;
#10 = DIRECTION ( 'NONE',  ( 0.000000000000000000, 0.000000000000000000, 1.000000000000000000 ) ) ;
#11 = CARTESIAN_POINT ( 'NONE',  ( -12.69999999999999929, 0.000000000000000000, 1.000000000000000000 ) ) ;
#12 = COORDINATED_UNIVERSAL_TIME_OFFSET ( 5, 0, .BEHIND. ) ;
#13 = PRODUCT_RELATED_PRODUCT_CATEGORY ( 'detail', '', ( #150 ) ) ;
#14 = ORGANIZATION ( 'UNSPECIFIED', 'UNSPECIFIED', '' ) ;
#15 = PRODUCT_DEFINITION ( 'UNKNOWN', '', #89, #36 ) ;
#16 = ORIENTED_EDGE ( 'NONE', *, *, #135, .T. ) ;
#17 = DIRECTION ( 'NONE',  ( 0.000000000000000000, 0.000000000000000000, 1.000000000000000000 ) ) ;
#18 = DIRECTION ( 'NONE',  ( -0.000000000000000000, -0.000000000000000000, -1.000000000000000000 ) ) ;
#19 = APPROVAL_DATE_TIME ( #149, #101 ) ;
#20 = DIRECTION ( 'NONE',  ( 1.000000000000000000, 0.000000000000000000, 0.000000000000000000 ) ) ;
#21 = DIRECTION ( 'NONE',  ( -1.000000000000000000, 0.000000000000000000, 0.000000000000000000 ) ) ;
#22 = DATE_AND_TIME ( #145, #6 ) ;
#23 = APPROVAL ( #125, 'UNSPECIFIED' ) ;
#24 = EDGE_CURVE ( 'NONE', #71, #108, #42, .T. ) ;
#25 = APPROVAL_PERSON_ORGANIZATION ( #50, #142, #39 ) ;
#26 = ORIENTED_EDGE ( 'NONE', *, *, #24, .T. ) ;
#27 = CALENDAR_DATE ( 2022, 16, 3 ) ;
#28 = EDGE_LOOP ( 'NONE', ( #154, #26, #169, #40 ) ) ;
#29 = COORDINATED_UNIVERSAL_TIME_OFFSET ( 5, 0, .BEHIND. ) ;
#30 = DATE_TIME_ROLE ( 'classification_date' ) ;
#31 = DIRECTION ( 'NONE',  ( -0.000000000000000000, -0.000000000000000000, -1.000000000000000000 ) ) ;
#32 = PERSON_AND_ORGANIZATION_ROLE ( 'design_owner' ) ;
#33 = SECURITY_CLASSIFICATION ( '', '', #34 ) ;
#34 = SECURITY_CLASSIFICATION_LEVEL ( 'unclassified' ) ;
#35 = DIRECTION ( 'NONE',  ( 1.000000000000000000, 0.000000000000000000, 0.000000000000000000 ) ) ;
#36 = DESIGN_CONTEXT ( 'detailed design', #131, 'design' ) ;
#37 = CC_DESIGN_DATE_AND_TIME_ASSIGNMENT ( #3, #166, ( #15 ) ) ;
#38 = PRODUCT_DEFINITION_SHAPE ( 'NONE', 'NONE',  #15 ) ;
#39 = APPROVAL_ROLE ( '' ) ;
#40 = ORIENTED_EDGE ( 'NONE', *, *, #61, .F. ) ;
#41 =( GEOMETRIC_REPRESENTATION_CONTEXT ( 3 ) GLOBAL_UNCERTAINTY_ASSIGNED_CONTEXT ( ( #175 ) ) GLOBAL_UNIT_ASSIGNED_CONTEXT ( ( #105, #158, #76 ) ) REPRESENTATION_CONTEXT ( 'NONE', 'WORKASPACE' ) );
#42 = LINE ( 'NONE', #7, #5 ) ;
#43 = CARTESIAN_POINT ( 'NONE',  ( 12.69999999999999929, 1.555301434917138433E-15, 1.000000000000000000 ) ) ;
#44 = CYLINDRICAL_SURFACE ( 'NONE', #148, 12.69999999999999929 ) ;
#45 = MECHANICAL_CONTEXT ( 'NONE', #120, 'mechanical' ) ;
#46 = COORDINATED_UNIVERSAL_TIME_OFFSET ( 5, 0, .BEHIND. ) ;
#47 = AXIS2_PLACEMENT_3D ( 'NONE', #103, #60, #102 ) ;
#48 = PERSON_AND_ORGANIZATION ( #163, #14 ) ;
#49 = APPROVAL_STATUS ( 'not_yet_approved' ) ;
#50 = PERSON_AND_ORGANIZATION ( #163, #14 ) ;
#51 = CC_DESIGN_DATE_AND_TIME_ASSIGNMENT ( #85, #30, ( #33 ) ) ;
#52 = ORIENTED_EDGE ( 'NONE', *, *, #107, .F. ) ;
#53 = ADVANCED_BREP_SHAPE_REPRESENTATION ( 'Web Model 43636_20903', ( #143, #168 ), #41 ) ;
#54 = COORDINATED_UNIVERSAL_TIME_OFFSET ( 5, 0, .BEHIND. ) ;
#55 = EDGE_LOOP ( 'NONE', ( #155, #121 ) ) ;
#56 = LOCAL_TIME ( 11, 38, 2.000000000000000000, #29 ) ;
#57 = APPROVAL_ROLE ( '' ) ;
#58 = APPROVAL_PERSON_ORGANIZATION ( #153, #101, #130 ) ;
#59 = DIRECTION ( 'NONE',  ( 1.000000000000000000, 0.000000000000000000, 0.000000000000000000 ) ) ;
#60 = DIRECTION ( 'NONE',  ( 0.000000000000000000, 0.000000000000000000, 1.000000000000000000 ) ) ;
#61 = EDGE_CURVE ( 'NONE', #138, #2, #97, .T. ) ;
#62 = CC_DESIGN_PERSON_AND_ORGANIZATION_ASSIGNMENT ( #90, #104, ( #33 ) ) ;
#63 = DIRECTION ( 'NONE',  ( 0.000000000000000000, 0.000000000000000000, 1.000000000000000000 ) ) ;
#64 = LOCAL_TIME ( 11, 38, 2.000000000000000000, #122 ) ;
#65 = CALENDAR_DATE ( 2022, 16, 3 ) ;
#66 = APPROVAL_DATE_TIME ( #81, #142 ) ;
#67 = ADVANCED_FACE ( 'NONE', ( #123 ), #4, .T. ) ;
#68 = CC_DESIGN_PERSON_AND_ORGANIZATION_ASSIGNMENT ( #48, #117, ( #15 ) ) ;
#69 = AXIS2_PLACEMENT_3D ( 'NONE', #161, #10, #35 ) ;
#70 = ORIENTED_EDGE ( 'NONE', *, *, #135, .F. ) ;
#71 = VERTEX_POINT ( 'NONE', #43 ) ;
#72 = ORIENTED_EDGE ( 'NONE', *, *, #128, .F. ) ;
#73 = AXIS2_PLACEMENT_3D ( 'NONE', #114, #134, #59 ) ;
#74 = CARTESIAN_POINT ( 'NONE',  ( 0.000000000000000000, 0.000000000000000000, 0.000000000000000000 ) ) ;
#75 = CC_DESIGN_PERSON_AND_ORGANIZATION_ASSIGNMENT ( #87, #32, ( #150 ) ) ;
#76 =( NAMED_UNIT ( * ) SI_UNIT ( $, .STERADIAN. ) SOLID_ANGLE_UNIT ( ) );
#77 = CARTESIAN_POINT ( 'NONE',  ( 0.000000000000000000, 0.000000000000000000, 0.000000000000000000 ) ) ;
#78 = SHAPE_DEFINITION_REPRESENTATION ( #38, #53 ) ;
#79 = AXIS2_PLACEMENT_3D ( 'NONE', #77, #63, #173 ) ;
#80 = CC_DESIGN_APPROVAL ( #142, ( #89 ) ) ;
#81 = DATE_AND_TIME ( #65, #106 ) ;
#82 = ADVANCED_FACE ( 'NONE', ( #100 ), #172, .F. ) ;
#83 = DIRECTION ( 'NONE',  ( -0.000000000000000000, -0.000000000000000000, -1.000000000000000000 ) ) ;
#84 = CARTESIAN_POINT ( 'NONE',  ( 0.000000000000000000, 0.000000000000000000, 1.000000000000000000 ) ) ;
#85 = DATE_AND_TIME ( #162, #56 ) ;
#86 = FACE_OUTER_BOUND ( 'NONE', #28, .T. ) ;
#87 = PERSON_AND_ORGANIZATION ( #163, #14 ) ;
#88 = APPLICATION_PROTOCOL_DEFINITION ( 'international standard', 'config_control_design', 1994, #131 ) ;
#89 = PRODUCT_DEFINITION_FORMATION_WITH_SPECIFIED_SOURCE ( 'ANY', '', #150, .NOT_KNOWN. ) ;
#90 = PERSON_AND_ORGANIZATION ( #163, #14 ) ;
#91 = CYLINDRICAL_SURFACE ( 'NONE', #126, 12.69999999999999929 ) ;
#92 = APPROVAL_PERSON_ORGANIZATION ( #159, #23, #57 ) ;
#93 = CALENDAR_DATE ( 2022, 16, 3 ) ;
#94 = CIRCLE ( 'NONE', #118, 12.69999999999999929 ) ;
#95 = ORIENTED_EDGE ( 'NONE', *, *, #24, .F. ) ;
#96 = PERSON_AND_ORGANIZATION_ROLE ( 'creator' ) ;
#97 = LINE ( 'NONE', #99, #136 ) ;
#98 = CC_DESIGN_APPROVAL ( #23, ( #33 ) ) ;
#99 = CARTESIAN_POINT ( 'NONE',  ( -12.69999999999999929, 0.000000000000000000, 1.000000000000000000 ) ) ;
#100 = FACE_OUTER_BOUND ( 'NONE', #139, .T. ) ;
#101 = APPROVAL ( #167, 'UNSPECIFIED' ) ;
#102 = DIRECTION ( 'NONE',  ( 1.000000000000000000, 0.000000000000000000, 0.000000000000000000 ) ) ;
#103 = CARTESIAN_POINT ( 'NONE',  ( 0.000000000000000000, 0.000000000000000000, 1.000000000000000000 ) ) ;
#104 = PERSON_AND_ORGANIZATION_ROLE ( 'classification_officer' ) ;
#105 =( LENGTH_UNIT ( ) NAMED_UNIT ( * ) SI_UNIT ( .MILLI., .METRE. ) );
#106 = LOCAL_TIME ( 11, 38, 2.000000000000000000, #54 ) ;
#107 = EDGE_CURVE ( 'NONE', #138, #71, #146, .T. ) ;
#108 = VERTEX_POINT ( 'NONE', #144 ) ;
#109 = CIRCLE ( 'NONE', #47, 12.69999999999999929 ) ;
#110 = PERSON_AND_ORGANIZATION_ROLE ( 'design_supplier' ) ;
#111 = CC_DESIGN_PERSON_AND_ORGANIZATION_ASSIGNMENT ( #1, #96, ( #89 ) ) ;
#112 = APPROVAL_DATE_TIME ( #22, #23 ) ;
#113 = ORIENTED_EDGE ( 'NONE', *, *, #61, .T. ) ;
#114 = CARTESIAN_POINT ( 'NONE',  ( 0.000000000000000000, 0.000000000000000000, 0.000000000000000000 ) ) ;
#115 = FACE_OUTER_BOUND ( 'NONE', #151, .T. ) ;
#116 = ADVANCED_FACE ( 'NONE', ( #86 ), #91, .T. ) ;
#117 = PERSON_AND_ORGANIZATION_ROLE ( 'creator' ) ;
#118 = AXIS2_PLACEMENT_3D ( 'NONE', #171, #140, #8 ) ;
#119 = ADVANCED_FACE ( 'NONE', ( #115 ), #44, .T. ) ;
#120 = APPLICATION_CONTEXT ( 'configuration controlled 3d designs of mechanical parts and assemblies' ) ;
#121 = ORIENTED_EDGE ( 'NONE', *, *, #165, .T. ) ;
#122 = COORDINATED_UNIVERSAL_TIME_OFFSET ( 5, 0, .BEHIND. ) ;
#123 = FACE_OUTER_BOUND ( 'NONE', #55, .T. ) ;
#124 = CARTESIAN_POINT ( 'NONE',  ( -12.69999999999999929, 0.000000000000000000, 0.000000000000000000 ) ) ;
#125 = APPROVAL_STATUS ( 'not_yet_approved' ) ;
#126 = AXIS2_PLACEMENT_3D ( 'NONE', #174, #9, #156 ) ;
#127 = DIRECTION ( 'NONE',  ( 1.000000000000000000, 0.000000000000000000, -0.000000000000000000 ) ) ;
#128 = EDGE_CURVE ( 'NONE', #108, #2, #133, .T. ) ;
#129 = CC_DESIGN_SECURITY_CLASSIFICATION ( #33, ( #89 ) ) ;
#130 = APPROVAL_ROLE ( '' ) ;
#131 = APPLICATION_CONTEXT ( 'configuration controlled 3d designs of mechanical parts and assemblies' ) ;
#132 = DIRECTION ( 'NONE',  ( 0.000000000000000000, 0.000000000000000000, 1.000000000000000000 ) ) ;
#133 = CIRCLE ( 'NONE', #73, 12.69999999999999929 ) ;
#134 = DIRECTION ( 'NONE',  ( 0.000000000000000000, 0.000000000000000000, 1.000000000000000000 ) ) ;
#135 = EDGE_CURVE ( 'NONE', #2, #108, #94, .T. ) ;
#136 = VECTOR ( 'NONE', #83, 1000.000000000000000 ) ;
#137 = LOCAL_TIME ( 11, 38, 2.000000000000000000, #46 ) ;
#138 = VERTEX_POINT ( 'NONE', #11 ) ;
#139 = EDGE_LOOP ( 'NONE', ( #70, #72 ) ) ;
#140 = DIRECTION ( 'NONE',  ( 0.000000000000000000, 0.000000000000000000, 1.000000000000000000 ) ) ;
#141 = CC_DESIGN_APPROVAL ( #101, ( #15 ) ) ;
#142 = APPROVAL ( #49, 'UNSPECIFIED' ) ;
#143 = MANIFOLD_SOLID_BREP ( 'Boss-Extrude1', #147 ) ;
#144 = CARTESIAN_POINT ( 'NONE',  ( 12.69999999999999929, 1.555301434917138433E-15, 0.000000000000000000 ) ) ;
#145 = CALENDAR_DATE ( 2022, 16, 3 ) ;
#146 = CIRCLE ( 'NONE', #69, 12.69999999999999929 ) ;
#147 = CLOSED_SHELL ( 'NONE', ( #116, #119, #67, #82 ) ) ;
#148 = AXIS2_PLACEMENT_3D ( 'NONE', #170, #31, #21 ) ;
#149 = DATE_AND_TIME ( #93, #137 ) ;
#150 = PRODUCT ( 'Web Model 43636_20903', 'Web Model 43636_20903', '', ( #45 ) ) ;
#151 = EDGE_LOOP ( 'NONE', ( #95, #52, #113, #16 ) ) ;
#152 = PERSON_AND_ORGANIZATION ( #163, #14 ) ;
#153 = PERSON_AND_ORGANIZATION ( #163, #14 ) ;
#154 = ORIENTED_EDGE ( 'NONE', *, *, #165, .F. ) ;
#155 = ORIENTED_EDGE ( 'NONE', *, *, #107, .T. ) ;
#156 = DIRECTION ( 'NONE',  ( -1.000000000000000000, 0.000000000000000000, 0.000000000000000000 ) ) ;
#157 = APPLICATION_PROTOCOL_DEFINITION ( 'international standard', 'config_control_design', 1994, #120 ) ;
#158 =( NAMED_UNIT ( * ) PLANE_ANGLE_UNIT ( ) SI_UNIT ( $, .RADIAN. ) );
#159 = PERSON_AND_ORGANIZATION ( #163, #14 ) ;
#160 = CC_DESIGN_PERSON_AND_ORGANIZATION_ASSIGNMENT ( #152, #110, ( #89 ) ) ;
#161 = CARTESIAN_POINT ( 'NONE',  ( 0.000000000000000000, 0.000000000000000000, 1.000000000000000000 ) ) ;
#162 = CALENDAR_DATE ( 2022, 16, 3 ) ;
#163 = PERSON ( 'UNSPECIFIED', 'UNSPECIFIED', 'UNSPECIFIED', ('UNSPECIFIED'), ('UNSPECIFIED'), ('UNSPECIFIED') ) ;
#164 = AXIS2_PLACEMENT_3D ( 'NONE', #84, #17, #127 ) ;
#165 = EDGE_CURVE ( 'NONE', #71, #138, #109, .T. ) ;
#166 = DATE_TIME_ROLE ( 'creation_date' ) ;
#167 = APPROVAL_STATUS ( 'not_yet_approved' ) ;
#168 = AXIS2_PLACEMENT_3D ( 'NONE', #74, #132, #20 ) ;
#169 = ORIENTED_EDGE ( 'NONE', *, *, #128, .T. ) ;
#170 = CARTESIAN_POINT ( 'NONE',  ( 0.000000000000000000, 0.000000000000000000, 1.000000000000000000 ) ) ;
#171 = CARTESIAN_POINT ( 'NONE',  ( 0.000000000000000000, 0.000000000000000000, 0.000000000000000000 ) ) ;
#172 = PLANE ( 'NONE',  #79 ) ;
#173 = DIRECTION ( 'NONE',  ( 1.000000000000000000, 0.000000000000000000, -0.000000000000000000 ) ) ;
#174 = CARTESIAN_POINT ( 'NONE',  ( 0.000000000000000000, 0.000000000000000000, 1.000000000000000000 ) ) ;
#175 = UNCERTAINTY_MEASURE_WITH_UNIT (LENGTH_MEASURE( 1.000000000000000082E-05 ), #105, 'distance_accuracy_value', 'NONE');
ENDSEC;
END-ISO-10303-21;
