ISO-10303-21;
HEADER;
FILE_DESCRIPTION (( 'STEP AP203' ),
    '1' );
FILE_NAME ('Web Model 83106_Default.step',
    '2017-06-22T15:25:27',
    ( '' ),
    ( '' ),
    'SwSTEP 2.0',
    'SolidWorks 2016',
    '' );
FILE_SCHEMA (( 'CONFIG_CONTROL_DESIGN' ));
ENDSEC;

DATA;
#1 = APPROVAL_ROLE ( '' ) ;
#2 = PRODUCT_DEFINITION_FORMATION_WITH_SPECIFIED_SOURCE ( 'ANY', '', #76, .NOT_KNOWN. ) ;
#3 = ADVANCED_FACE ( 'NONE', ( #174 ), #28, .T. ) ;
#4 = ORIENTED_EDGE ( 'NONE', *, *, #67, .F. ) ;
#5 = CARTESIAN_POINT ( 'NONE',  ( 0.0000000000000000000, 0.0000000000000000000, 0.0000000000000000000 ) ) ;
#6 = DIRECTION ( 'NONE',  ( 0.0000000000000000000, 0.0000000000000000000, 1.000000000000000000 ) ) ;
#7 = AXIS2_PLACEMENT_3D ( 'NONE', #77, #70, #61 ) ;
#8 = PERSON_AND_ORGANIZATION ( #152, #146 ) ;
#9 = DIRECTION ( 'NONE',  ( 1.000000000000000000, 0.0000000000000000000, 0.0000000000000000000 ) ) ;
#10 = DESIGN_CONTEXT ( 'detailed design', #169, 'design' ) ;
#11 = CC_DESIGN_APPROVAL ( #103, ( #85 ) ) ;
#12 = PERSON_AND_ORGANIZATION ( #152, #146 ) ;
#13 = AXIS2_PLACEMENT_3D ( 'NONE', #29, #36, #9 ) ;
#14 = AXIS2_PLACEMENT_3D ( 'NONE', #121, #26, #136 ) ;
#15 = ORIENTED_EDGE ( 'NONE', *, *, #62, .F. ) ;
#16 = ORIENTED_EDGE ( 'NONE', *, *, #79, .T. ) ;
#17 = PERSON_AND_ORGANIZATION ( #152, #146 ) ;
#18 = ORIENTED_EDGE ( 'NONE', *, *, #107, .T. ) ;
#19 = PERSON_AND_ORGANIZATION ( #152, #146 ) ;
#20 = SECURITY_CLASSIFICATION ( '', '', #54 ) ;
#21 = ORIENTED_EDGE ( 'NONE', *, *, #79, .F. ) ;
#22 = DIRECTION ( 'NONE',  ( 0.0000000000000000000, 0.0000000000000000000, 1.000000000000000000 ) ) ;
#23 = DATE_AND_TIME ( #148, #159 ) ;
#24 = VERTEX_POINT ( 'NONE', #42 ) ;
#25 = DIRECTION ( 'NONE',  ( 0.0000000000000000000, 0.0000000000000000000, 1.000000000000000000 ) ) ;
#26 = DIRECTION ( 'NONE',  ( -0.0000000000000000000, -0.0000000000000000000, -1.000000000000000000 ) ) ;
#27 = COORDINATED_UNIVERSAL_TIME_OFFSET ( 5, 0, .BEHIND. ) ;
#28 = CYLINDRICAL_SURFACE ( 'NONE', #48, 25.00000000000000000 ) ;
#29 = CARTESIAN_POINT ( 'NONE',  ( 0.0000000000000000000, 0.0000000000000000000, 0.2000000000000000100 ) ) ;
#30 = DIRECTION ( 'NONE',  ( -1.000000000000000000, 0.0000000000000000000, 0.0000000000000000000 ) ) ;
#31 = CIRCLE ( 'NONE', #118, 25.00000000000000000 ) ;
#32 =( NAMED_UNIT ( * ) PLANE_ANGLE_UNIT ( ) SI_UNIT ( $, .RADIAN. ) );
#33 = DIRECTION ( 'NONE',  ( 1.000000000000000000, 0.0000000000000000000, 0.0000000000000000000 ) ) ;
#34 = EDGE_LOOP ( 'NONE', ( #21, #58, #96, #4 ) ) ;
#35 = CALENDAR_DATE ( 2017, 22, 6 ) ;
#36 = DIRECTION ( 'NONE',  ( 0.0000000000000000000, 0.0000000000000000000, 1.000000000000000000 ) ) ;
#37 = CARTESIAN_POINT ( 'NONE',  ( 25.00000000000000000, 3.061616997868383000E-015, 0.2000000000000000100 ) ) ;
#38 = CC_DESIGN_PERSON_AND_ORGANIZATION_ASSIGNMENT ( #138, #45, ( #2 ) ) ;
#39 = ADVANCED_BREP_SHAPE_REPRESENTATION ( 'Web Model 83106_Default', ( #49, #7 ), #71 ) ;
#40 = APPROVAL_STATUS ( 'not_yet_approved' ) ;
#41 = CC_DESIGN_DATE_AND_TIME_ASSIGNMENT ( #23, #128, ( #85 ) ) ;
#42 = CARTESIAN_POINT ( 'NONE',  ( 25.00000000000000000, 3.061616997868383000E-015, 0.2000000000000000100 ) ) ;
#43 = APPROVAL ( #40, 'UNSPECIFIED' ) ;
#44 = DATE_AND_TIME ( #35, #173 ) ;
#45 = PERSON_AND_ORGANIZATION_ROLE ( 'design_supplier' ) ;
#46 = EDGE_CURVE ( 'NONE', #117, #24, #104, .T. ) ;
#47 = CARTESIAN_POINT ( 'NONE',  ( -25.00000000000000000, 0.0000000000000000000, 0.2000000000000000100 ) ) ;
#48 = AXIS2_PLACEMENT_3D ( 'NONE', #139, #155, #30 ) ;
#49 = MANIFOLD_SOLID_BREP ( 'Extrude1', #94 ) ;
#50 = LOCAL_TIME ( 11, 25, 27.00000000000000000, #158 ) ;
#51 = COORDINATED_UNIVERSAL_TIME_OFFSET ( 5, 0, .BEHIND. ) ;
#52 = AXIS2_PLACEMENT_3D ( 'NONE', #98, #6, #74 ) ;
#53 = APPROVAL_PERSON_ORGANIZATION ( #8, #43, #140 ) ;
#54 = SECURITY_CLASSIFICATION_LEVEL ( 'unclassified' ) ;
#55 = LINE ( 'NONE', #63, #113 ) ;
#56 = CC_DESIGN_APPROVAL ( #82, ( #20 ) ) ;
#57 = CYLINDRICAL_SURFACE ( 'NONE', #14, 25.00000000000000000 ) ;
#58 = ORIENTED_EDGE ( 'NONE', *, *, #62, .T. ) ;
#59 = EDGE_LOOP ( 'NONE', ( #15, #83, #175, #18 ) ) ;
#60 = MECHANICAL_CONTEXT ( 'NONE', #170, 'mechanical' ) ;
#61 = DIRECTION ( 'NONE',  ( 1.000000000000000000, 0.0000000000000000000, 0.0000000000000000000 ) ) ;
#62 = EDGE_CURVE ( 'NONE', #24, #123, #161, .T. ) ;
#63 = CARTESIAN_POINT ( 'NONE',  ( -25.00000000000000000, 0.0000000000000000000, 0.2000000000000000100 ) ) ;
#64 = CIRCLE ( 'NONE', #13, 25.00000000000000000 ) ;
#65 = CC_DESIGN_PERSON_AND_ORGANIZATION_ASSIGNMENT ( #19, #84, ( #85 ) ) ;
#66 = APPROVAL_DATE_TIME ( #44, #103 ) ;
#67 = EDGE_CURVE ( 'NONE', #117, #125, #55, .T. ) ;
#68 = ADVANCED_FACE ( 'NONE', ( #126 ), #57, .T. ) ;
#69 = PLANE ( 'NONE',  #52 ) ;
#70 = DIRECTION ( 'NONE',  ( 0.0000000000000000000, 0.0000000000000000000, 1.000000000000000000 ) ) ;
#71 =( GEOMETRIC_REPRESENTATION_CONTEXT ( 3 ) GLOBAL_UNCERTAINTY_ASSIGNED_CONTEXT ( ( #120 ) ) GLOBAL_UNIT_ASSIGNED_CONTEXT ( ( #87, #32, #167 ) ) REPRESENTATION_CONTEXT ( 'NONE', 'WORKASPACE' ) );
#72 = PRODUCT_DEFINITION_SHAPE ( 'NONE', 'NONE',  #85 ) ;
#73 = LOCAL_TIME ( 11, 25, 27.00000000000000000, #151 ) ;
#74 = DIRECTION ( 'NONE',  ( 1.000000000000000000, 0.0000000000000000000, -0.0000000000000000000 ) ) ;
#75 = EDGE_CURVE ( 'NONE', #123, #125, #31, .T. ) ;
#76 = PRODUCT ( 'Web Model 83106_Default', 'Web Model 83106_Default', '', ( #60 ) ) ;
#77 = CARTESIAN_POINT ( 'NONE',  ( 0.0000000000000000000, 0.0000000000000000000, 0.0000000000000000000 ) ) ;
#78 = APPROVAL_PERSON_ORGANIZATION ( #129, #82, #102 ) ;
#79 = EDGE_CURVE ( 'NONE', #24, #117, #64, .T. ) ;
#80 = DIRECTION ( 'NONE',  ( 1.000000000000000000, 0.0000000000000000000, 0.0000000000000000000 ) ) ;
#81 = CARTESIAN_POINT ( 'NONE',  ( 0.0000000000000000000, 0.0000000000000000000, 0.2000000000000000100 ) ) ;
#82 = APPROVAL ( #150, 'UNSPECIFIED' ) ;
#83 = ORIENTED_EDGE ( 'NONE', *, *, #46, .F. ) ;
#84 = PERSON_AND_ORGANIZATION_ROLE ( 'creator' ) ;
#85 = PRODUCT_DEFINITION ( 'UNKNOWN', '', #2, #10 ) ;
#86 = CALENDAR_DATE ( 2017, 22, 6 ) ;
#87 =( LENGTH_UNIT ( ) NAMED_UNIT ( * ) SI_UNIT ( .MILLI., .METRE. ) );
#88 = AXIS2_PLACEMENT_3D ( 'NONE', #81, #22, #147 ) ;
#89 = APPROVAL_DATE_TIME ( #92, #43 ) ;
#90 = ORIENTED_EDGE ( 'NONE', *, *, #75, .F. ) ;
#91 = CC_DESIGN_APPROVAL ( #43, ( #2 ) ) ;
#92 = DATE_AND_TIME ( #112, #50 ) ;
#93 = CARTESIAN_POINT ( 'NONE',  ( 25.00000000000000000, 3.061616997868383000E-015, 0.0000000000000000000 ) ) ;
#94 = CLOSED_SHELL ( 'NONE', ( #3, #68, #163, #141 ) ) ;
#95 = ORIENTED_EDGE ( 'NONE', *, *, #107, .F. ) ;
#96 = ORIENTED_EDGE ( 'NONE', *, *, #75, .T. ) ;
#97 = PERSON_AND_ORGANIZATION_ROLE ( 'creator' ) ;
#98 = CARTESIAN_POINT ( 'NONE',  ( 0.0000000000000000000, 0.0000000000000000000, 0.0000000000000000000 ) ) ;
#99 = PERSON_AND_ORGANIZATION ( #152, #146 ) ;
#100 = AXIS2_PLACEMENT_3D ( 'NONE', #5, #160, #80 ) ;
#101 = DATE_TIME_ROLE ( 'classification_date' ) ;
#102 = APPROVAL_ROLE ( '' ) ;
#103 = APPROVAL ( #145, 'UNSPECIFIED' ) ;
#104 = CIRCLE ( 'NONE', #137, 25.00000000000000000 ) ;
#105 = CIRCLE ( 'NONE', #100, 25.00000000000000000 ) ;
#106 = SHAPE_DEFINITION_REPRESENTATION ( #72, #39 ) ;
#107 = EDGE_CURVE ( 'NONE', #125, #123, #105, .T. ) ;
#108 = LOCAL_TIME ( 11, 25, 27.00000000000000000, #162 ) ;
#109 = PERSON_AND_ORGANIZATION_ROLE ( 'classification_officer' ) ;
#110 = CC_DESIGN_PERSON_AND_ORGANIZATION_ASSIGNMENT ( #17, #109, ( #20 ) ) ;
#111 = PERSON_AND_ORGANIZATION ( #152, #146 ) ;
#112 = CALENDAR_DATE ( 2017, 22, 6 ) ;
#113 = VECTOR ( 'NONE', #165, 1000.000000000000000 ) ;
#114 = CC_DESIGN_PERSON_AND_ORGANIZATION_ASSIGNMENT ( #99, #164, ( #76 ) ) ;
#115 = PLANE ( 'NONE',  #88 ) ;
#116 = DATE_AND_TIME ( #86, #108 ) ;
#117 = VERTEX_POINT ( 'NONE', #47 ) ;
#118 = AXIS2_PLACEMENT_3D ( 'NONE', #119, #25, #33 ) ;
#119 = CARTESIAN_POINT ( 'NONE',  ( 0.0000000000000000000, 0.0000000000000000000, 0.0000000000000000000 ) ) ;
#120 = UNCERTAINTY_MEASURE_WITH_UNIT (LENGTH_MEASURE( 1.000000000000000100E-005 ), #87, 'distance_accuracy_value', 'NONE');
#121 = CARTESIAN_POINT ( 'NONE',  ( 0.0000000000000000000, 0.0000000000000000000, 0.2000000000000000100 ) ) ;
#122 = EDGE_LOOP ( 'NONE', ( #95, #90 ) ) ;
#123 = VERTEX_POINT ( 'NONE', #93 ) ;
#124 = EDGE_LOOP ( 'NONE', ( #130, #16 ) ) ;
#125 = VERTEX_POINT ( 'NONE', #154 ) ;
#126 = FACE_OUTER_BOUND ( 'NONE', #59, .T. ) ;
#127 = APPROVAL_DATE_TIME ( #133, #82 ) ;
#128 = DATE_TIME_ROLE ( 'creation_date' ) ;
#129 = PERSON_AND_ORGANIZATION ( #152, #146 ) ;
#130 = ORIENTED_EDGE ( 'NONE', *, *, #46, .T. ) ;
#131 = DIRECTION ( 'NONE',  ( -0.0000000000000000000, -0.0000000000000000000, -1.000000000000000000 ) ) ;
#132 = CC_DESIGN_SECURITY_CLASSIFICATION ( #20, ( #2 ) ) ;
#133 = DATE_AND_TIME ( #153, #73 ) ;
#134 = APPLICATION_PROTOCOL_DEFINITION ( 'international standard', 'config_control_design', 1994, #170 ) ;
#135 = DIRECTION ( 'NONE',  ( 0.0000000000000000000, 0.0000000000000000000, 1.000000000000000000 ) ) ;
#136 = DIRECTION ( 'NONE',  ( -1.000000000000000000, 0.0000000000000000000, 0.0000000000000000000 ) ) ;
#137 = AXIS2_PLACEMENT_3D ( 'NONE', #172, #135, #157 ) ;
#138 = PERSON_AND_ORGANIZATION ( #152, #146 ) ;
#139 = CARTESIAN_POINT ( 'NONE',  ( 0.0000000000000000000, 0.0000000000000000000, 0.2000000000000000100 ) ) ;
#140 = APPROVAL_ROLE ( '' ) ;
#141 = ADVANCED_FACE ( 'NONE', ( #149 ), #69, .F. ) ;
#142 = APPROVAL_PERSON_ORGANIZATION ( #111, #103, #1 ) ;
#143 = PRODUCT_RELATED_PRODUCT_CATEGORY ( 'detail', '', ( #76 ) ) ;
#144 = FACE_OUTER_BOUND ( 'NONE', #124, .T. ) ;
#145 = APPROVAL_STATUS ( 'not_yet_approved' ) ;
#146 = ORGANIZATION ( 'UNSPECIFIED', 'UNSPECIFIED', '' ) ;
#147 = DIRECTION ( 'NONE',  ( 1.000000000000000000, 0.0000000000000000000, -0.0000000000000000000 ) ) ;
#148 = CALENDAR_DATE ( 2017, 22, 6 ) ;
#149 = FACE_OUTER_BOUND ( 'NONE', #122, .T. ) ;
#150 = APPROVAL_STATUS ( 'not_yet_approved' ) ;
#151 = COORDINATED_UNIVERSAL_TIME_OFFSET ( 5, 0, .BEHIND. ) ;
#152 = PERSON ( 'UNSPECIFIED', 'UNSPECIFIED', 'UNSPECIFIED', ('UNSPECIFIED'), ('UNSPECIFIED'), ('UNSPECIFIED') ) ;
#153 = CALENDAR_DATE ( 2017, 22, 6 ) ;
#154 = CARTESIAN_POINT ( 'NONE',  ( -25.00000000000000000, 0.0000000000000000000, 0.0000000000000000000 ) ) ;
#155 = DIRECTION ( 'NONE',  ( -0.0000000000000000000, -0.0000000000000000000, -1.000000000000000000 ) ) ;
#156 = VECTOR ( 'NONE', #131, 1000.000000000000000 ) ;
#157 = DIRECTION ( 'NONE',  ( 1.000000000000000000, 0.0000000000000000000, 0.0000000000000000000 ) ) ;
#158 = COORDINATED_UNIVERSAL_TIME_OFFSET ( 5, 0, .BEHIND. ) ;
#159 = LOCAL_TIME ( 11, 25, 27.00000000000000000, #51 ) ;
#160 = DIRECTION ( 'NONE',  ( 0.0000000000000000000, 0.0000000000000000000, 1.000000000000000000 ) ) ;
#161 = LINE ( 'NONE', #37, #156 ) ;
#162 = COORDINATED_UNIVERSAL_TIME_OFFSET ( 5, 0, .BEHIND. ) ;
#163 = ADVANCED_FACE ( 'NONE', ( #144 ), #115, .T. ) ;
#164 = PERSON_AND_ORGANIZATION_ROLE ( 'design_owner' ) ;
#165 = DIRECTION ( 'NONE',  ( -0.0000000000000000000, -0.0000000000000000000, -1.000000000000000000 ) ) ;
#166 = APPLICATION_PROTOCOL_DEFINITION ( 'international standard', 'config_control_design', 1994, #169 ) ;
#167 =( NAMED_UNIT ( * ) SI_UNIT ( $, .STERADIAN. ) SOLID_ANGLE_UNIT ( ) );
#168 = CC_DESIGN_PERSON_AND_ORGANIZATION_ASSIGNMENT ( #12, #97, ( #2 ) ) ;
#169 = APPLICATION_CONTEXT ( 'configuration controlled 3d designs of mechanical parts and assemblies' ) ;
#170 = APPLICATION_CONTEXT ( 'configuration controlled 3d designs of mechanical parts and assemblies' ) ;
#171 = CC_DESIGN_DATE_AND_TIME_ASSIGNMENT ( #116, #101, ( #20 ) ) ;
#172 = CARTESIAN_POINT ( 'NONE',  ( 0.0000000000000000000, 0.0000000000000000000, 0.2000000000000000100 ) ) ;
#173 = LOCAL_TIME ( 11, 25, 27.00000000000000000, #27 ) ;
#174 = FACE_OUTER_BOUND ( 'NONE', #34, .T. ) ;
#175 = ORIENTED_EDGE ( 'NONE', *, *, #67, .T. ) ;
ENDSEC;
END-ISO-10303-21;
