ISO-10303-21;
HEADER;
FILE_DESCRIPTION (( 'STEP AP203' ),
    '1' );
FILE_NAME ('Web Model ZnSe Unctd_39397.step',
    '2018-09-27T18:11:22',
    ( '' ),
    ( '' ),
    'SwSTEP 2.0',
    'SolidWorks 2016',
    '' );
FILE_SCHEMA (( 'CONFIG_CONTROL_DESIGN' ));
ENDSEC;

DATA;
#1 = AXIS2_PLACEMENT_3D ( 'NONE', #135, #86, #97 ) ;
#2 = SECURITY_CLASSIFICATION ( '', '', #25 ) ;
#3 = APPLICATION_PROTOCOL_DEFINITION ( 'international standard', 'config_control_design', 1994, #100 ) ;
#4 = PLANE ( 'NONE',  #29 ) ;
#5 = CALENDAR_DATE ( 2018, 27, 9 ) ;
#6 = APPROVAL ( #122, 'UNSPECIFIED' ) ;
#7 = PERSON_AND_ORGANIZATION_ROLE ( 'design_owner' ) ;
#8 = APPROVAL_STATUS ( 'not_yet_approved' ) ;
#9 = PRODUCT_DEFINITION_SHAPE ( 'NONE', 'NONE',  #174 ) ;
#10 = CIRCLE ( 'NONE', #17, 12.69999999999999900 ) ;
#11 = CC_DESIGN_APPROVAL ( #149, ( #2 ) ) ;
#12 = COORDINATED_UNIVERSAL_TIME_OFFSET ( 5, 0, .BEHIND. ) ;
#13 = ADVANCED_FACE ( 'NONE', ( #90 ), #20, .T. ) ;
#14 = CYLINDRICAL_SURFACE ( 'NONE', #40, 12.69999999999999900 ) ;
#15 = LOCAL_TIME ( 14, 11, 22.00000000000000000, #55 ) ;
#16 = ADVANCED_FACE ( 'NONE', ( #125 ), #14, .T. ) ;
#17 = AXIS2_PLACEMENT_3D ( 'NONE', #61, #71, #21 ) ;
#18 = CALENDAR_DATE ( 2018, 27, 9 ) ;
#19 = DIRECTION ( 'NONE',  ( 0.0000000000000000000, 0.0000000000000000000, 1.000000000000000000 ) ) ;
#20 = PLANE ( 'NONE',  #127 ) ;
#21 = DIRECTION ( 'NONE',  ( 1.000000000000000000, 0.0000000000000000000, 0.0000000000000000000 ) ) ;
#22 = VERTEX_POINT ( 'NONE', #43 ) ;
#23 = EDGE_CURVE ( 'NONE', #147, #69, #175, .T. ) ;
#24 = ORIENTED_EDGE ( 'NONE', *, *, #23, .T. ) ;
#25 = SECURITY_CLASSIFICATION_LEVEL ( 'unclassified' ) ;
#26 = EDGE_CURVE ( 'NONE', #22, #69, #132, .T. ) ;
#27 = CC_DESIGN_DATE_AND_TIME_ASSIGNMENT ( #104, #150, ( #174 ) ) ;
#28 = EDGE_CURVE ( 'NONE', #96, #147, #112, .T. ) ;
#29 = AXIS2_PLACEMENT_3D ( 'NONE', #126, #152, #140 ) ;
#30 = PRODUCT_RELATED_PRODUCT_CATEGORY ( 'detail', '', ( #133 ) ) ;
#31 = APPROVAL_PERSON_ORGANIZATION ( #99, #6, #46 ) ;
#32 = CARTESIAN_POINT ( 'NONE',  ( 0.0000000000000000000, 0.0000000000000000000, 1.500000000000000000 ) ) ;
#33 = APPLICATION_PROTOCOL_DEFINITION ( 'international standard', 'config_control_design', 1994, #101 ) ;
#34 = CARTESIAN_POINT ( 'NONE',  ( 0.0000000000000000000, 0.0000000000000000000, -1.500000000000000000 ) ) ;
#35 = DIRECTION ( 'NONE',  ( 1.000000000000000000, 0.0000000000000000000, 0.0000000000000000000 ) ) ;
#36 = CARTESIAN_POINT ( 'NONE',  ( 0.0000000000000000000, 0.0000000000000000000, 0.0000000000000000000 ) ) ;
#37 = CC_DESIGN_APPROVAL ( #63, ( #83 ) ) ;
#38 = APPROVAL_STATUS ( 'not_yet_approved' ) ;
#39 = CIRCLE ( 'NONE', #93, 12.69999999999999900 ) ;
#40 = AXIS2_PLACEMENT_3D ( 'NONE', #32, #120, #59 ) ;
#41 = PERSON_AND_ORGANIZATION ( #160, #162 ) ;
#42 = PERSON_AND_ORGANIZATION ( #160, #162 ) ;
#43 = CARTESIAN_POINT ( 'NONE',  ( 12.69999999999999900, 1.555301434917138400E-015, 1.500000000000000000 ) ) ;
#44 = DESIGN_CONTEXT ( 'detailed design', #101, 'design' ) ;
#45 = FACE_OUTER_BOUND ( 'NONE', #161, .T. ) ;
#46 = APPROVAL_ROLE ( '' ) ;
#47 = APPROVAL_DATE_TIME ( #113, #6 ) ;
#48 = DIRECTION ( 'NONE',  ( -0.0000000000000000000, -0.0000000000000000000, -1.000000000000000000 ) ) ;
#49 = CARTESIAN_POINT ( 'NONE',  ( 0.0000000000000000000, 0.0000000000000000000, 1.500000000000000000 ) ) ;
#50 = DIRECTION ( 'NONE',  ( 1.000000000000000000, 0.0000000000000000000, 0.0000000000000000000 ) ) ;
#51 =( NAMED_UNIT ( * ) SI_UNIT ( $, .STERADIAN. ) SOLID_ANGLE_UNIT ( ) );
#52 = ORIENTED_EDGE ( 'NONE', *, *, #28, .F. ) ;
#53 = PERSON_AND_ORGANIZATION ( #160, #162 ) ;
#54 = EDGE_LOOP ( 'NONE', ( #66, #129 ) ) ;
#55 = COORDINATED_UNIVERSAL_TIME_OFFSET ( 5, 0, .BEHIND. ) ;
#56 = PERSON_AND_ORGANIZATION ( #160, #162 ) ;
#57 = MANIFOLD_SOLID_BREP ( 'Boss-Extrude1', #130 ) ;
#58 = APPROVAL_DATE_TIME ( #74, #63 ) ;
#59 = DIRECTION ( 'NONE',  ( -1.000000000000000000, 0.0000000000000000000, 0.0000000000000000000 ) ) ;
#60 = ORIENTED_EDGE ( 'NONE', *, *, #28, .T. ) ;
#61 = CARTESIAN_POINT ( 'NONE',  ( 0.0000000000000000000, 0.0000000000000000000, 1.500000000000000000 ) ) ;
#62 = ORIENTED_EDGE ( 'NONE', *, *, #26, .T. ) ;
#63 = APPROVAL ( #38, 'UNSPECIFIED' ) ;
#64 = ORIENTED_EDGE ( 'NONE', *, *, #82, .F. ) ;
#65 = CC_DESIGN_PERSON_AND_ORGANIZATION_ASSIGNMENT ( #117, #7, ( #133 ) ) ;
#66 = ORIENTED_EDGE ( 'NONE', *, *, #106, .T. ) ;
#67 = ADVANCED_FACE ( 'NONE', ( #115 ), #145, .T. ) ;
#68 = ORIENTED_EDGE ( 'NONE', *, *, #26, .F. ) ;
#69 = VERTEX_POINT ( 'NONE', #151 ) ;
#70 = APPROVAL_PERSON_ORGANIZATION ( #42, #63, #103 ) ;
#71 = DIRECTION ( 'NONE',  ( 0.0000000000000000000, 0.0000000000000000000, 1.000000000000000000 ) ) ;
#72 =( LENGTH_UNIT ( ) NAMED_UNIT ( * ) SI_UNIT ( .MILLI., .METRE. ) );
#73 = LOCAL_TIME ( 14, 11, 22.00000000000000000, #169 ) ;
#74 = DATE_AND_TIME ( #5, #105 ) ;
#75 = CARTESIAN_POINT ( 'NONE',  ( 12.69999999999999900, 1.555301434917138400E-015, 1.500000000000000000 ) ) ;
#76 = VECTOR ( 'NONE', #48, 1000.000000000000000 ) ;
#77 = COORDINATED_UNIVERSAL_TIME_OFFSET ( 5, 0, .BEHIND. ) ;
#78 = PERSON_AND_ORGANIZATION_ROLE ( 'design_supplier' ) ;
#79 =( GEOMETRIC_REPRESENTATION_CONTEXT ( 3 ) GLOBAL_UNCERTAINTY_ASSIGNED_CONTEXT ( ( #170 ) ) GLOBAL_UNIT_ASSIGNED_CONTEXT ( ( #72, #142, #51 ) ) REPRESENTATION_CONTEXT ( 'NONE', 'WORKASPACE' ) );
#80 = VECTOR ( 'NONE', #98, 1000.000000000000000 ) ;
#81 = DATE_AND_TIME ( #116, #155 ) ;
#82 = EDGE_CURVE ( 'NONE', #22, #96, #39, .T. ) ;
#83 = PRODUCT_DEFINITION_FORMATION_WITH_SPECIFIED_SOURCE ( 'ANY', '', #133, .NOT_KNOWN. ) ;
#84 = EDGE_CURVE ( 'NONE', #69, #147, #102, .T. ) ;
#85 = DIRECTION ( 'NONE',  ( 0.0000000000000000000, 0.0000000000000000000, 1.000000000000000000 ) ) ;
#86 = DIRECTION ( 'NONE',  ( -0.0000000000000000000, -0.0000000000000000000, -1.000000000000000000 ) ) ;
#87 = CC_DESIGN_APPROVAL ( #6, ( #174 ) ) ;
#88 = EDGE_LOOP ( 'NONE', ( #64, #62, #159, #52 ) ) ;
#89 = DIRECTION ( 'NONE',  ( 1.000000000000000000, 0.0000000000000000000, 0.0000000000000000000 ) ) ;
#90 = FACE_OUTER_BOUND ( 'NONE', #54, .T. ) ;
#91 = LOCAL_TIME ( 14, 11, 22.00000000000000000, #77 ) ;
#92 = EDGE_LOOP ( 'NONE', ( #68, #141, #60, #24 ) ) ;
#93 = AXIS2_PLACEMENT_3D ( 'NONE', #49, #19, #166 ) ;
#94 = AXIS2_PLACEMENT_3D ( 'NONE', #36, #124, #50 ) ;
#95 = CALENDAR_DATE ( 2018, 27, 9 ) ;
#96 = VERTEX_POINT ( 'NONE', #154 ) ;
#97 = DIRECTION ( 'NONE',  ( -1.000000000000000000, 0.0000000000000000000, 0.0000000000000000000 ) ) ;
#98 = DIRECTION ( 'NONE',  ( -0.0000000000000000000, -0.0000000000000000000, -1.000000000000000000 ) ) ;
#99 = PERSON_AND_ORGANIZATION ( #160, #162 ) ;
#100 = APPLICATION_CONTEXT ( 'configuration controlled 3d designs of mechanical parts and assemblies' ) ;
#101 = APPLICATION_CONTEXT ( 'configuration controlled 3d designs of mechanical parts and assemblies' ) ;
#102 = CIRCLE ( 'NONE', #157, 12.69999999999999900 ) ;
#103 = APPROVAL_ROLE ( '' ) ;
#104 = DATE_AND_TIME ( #18, #91 ) ;
#105 = LOCAL_TIME ( 14, 11, 22.00000000000000000, #158 ) ;
#106 = EDGE_CURVE ( 'NONE', #96, #22, #10, .T. ) ;
#107 = DATE_AND_TIME ( #137, #15 ) ;
#108 = CARTESIAN_POINT ( 'NONE',  ( -12.69999999999999900, 0.0000000000000000000, 1.500000000000000000 ) ) ;
#109 = PERSON_AND_ORGANIZATION ( #160, #162 ) ;
#110 = CARTESIAN_POINT ( 'NONE',  ( 0.0000000000000000000, 0.0000000000000000000, 1.500000000000000000 ) ) ;
#111 = MECHANICAL_CONTEXT ( 'NONE', #100, 'mechanical' ) ;
#112 = LINE ( 'NONE', #108, #80 ) ;
#113 = DATE_AND_TIME ( #95, #73 ) ;
#114 = CC_DESIGN_PERSON_AND_ORGANIZATION_ASSIGNMENT ( #53, #173, ( #83 ) ) ;
#115 = FACE_OUTER_BOUND ( 'NONE', #88, .T. ) ;
#116 = CALENDAR_DATE ( 2018, 27, 9 ) ;
#117 = PERSON_AND_ORGANIZATION ( #160, #162 ) ;
#118 = ADVANCED_FACE ( 'NONE', ( #45 ), #4, .F. ) ;
#119 = PERSON_AND_ORGANIZATION ( #160, #162 ) ;
#120 = DIRECTION ( 'NONE',  ( -0.0000000000000000000, -0.0000000000000000000, -1.000000000000000000 ) ) ;
#121 = CC_DESIGN_PERSON_AND_ORGANIZATION_ASSIGNMENT ( #119, #156, ( #2 ) ) ;
#122 = APPROVAL_STATUS ( 'not_yet_approved' ) ;
#123 = DIRECTION ( 'NONE',  ( 1.000000000000000000, 0.0000000000000000000, -0.0000000000000000000 ) ) ;
#124 = DIRECTION ( 'NONE',  ( 0.0000000000000000000, 0.0000000000000000000, 1.000000000000000000 ) ) ;
#125 = FACE_OUTER_BOUND ( 'NONE', #92, .T. ) ;
#126 = CARTESIAN_POINT ( 'NONE',  ( 0.0000000000000000000, 0.0000000000000000000, -1.500000000000000000 ) ) ;
#127 = AXIS2_PLACEMENT_3D ( 'NONE', #110, #85, #123 ) ;
#128 = DATE_TIME_ROLE ( 'classification_date' ) ;
#129 = ORIENTED_EDGE ( 'NONE', *, *, #82, .T. ) ;
#130 = CLOSED_SHELL ( 'NONE', ( #67, #16, #13, #118 ) ) ;
#131 = SHAPE_DEFINITION_REPRESENTATION ( #9, #134 ) ;
#132 = LINE ( 'NONE', #75, #76 ) ;
#133 = PRODUCT ( 'Web Model ZnSe Unctd_39397', 'Web Model ZnSe Unctd_39397', '', ( #111 ) ) ;
#134 = ADVANCED_BREP_SHAPE_REPRESENTATION ( 'Web Model ZnSe Unctd_39397', ( #57, #94 ), #79 ) ;
#135 = CARTESIAN_POINT ( 'NONE',  ( 0.0000000000000000000, 0.0000000000000000000, 1.500000000000000000 ) ) ;
#136 = ORIENTED_EDGE ( 'NONE', *, *, #23, .F. ) ;
#137 = CALENDAR_DATE ( 2018, 27, 9 ) ;
#138 = PERSON_AND_ORGANIZATION_ROLE ( 'creator' ) ;
#139 = DIRECTION ( 'NONE',  ( 0.0000000000000000000, 0.0000000000000000000, 1.000000000000000000 ) ) ;
#140 = DIRECTION ( 'NONE',  ( 1.000000000000000000, 0.0000000000000000000, -0.0000000000000000000 ) ) ;
#141 = ORIENTED_EDGE ( 'NONE', *, *, #106, .F. ) ;
#142 =( NAMED_UNIT ( * ) PLANE_ANGLE_UNIT ( ) SI_UNIT ( $, .RADIAN. ) );
#143 = DIRECTION ( 'NONE',  ( 0.0000000000000000000, 0.0000000000000000000, 1.000000000000000000 ) ) ;
#144 = APPROVAL_ROLE ( '' ) ;
#145 = CYLINDRICAL_SURFACE ( 'NONE', #1, 12.69999999999999900 ) ;
#146 = CC_DESIGN_PERSON_AND_ORGANIZATION_ASSIGNMENT ( #109, #138, ( #174 ) ) ;
#147 = VERTEX_POINT ( 'NONE', #167 ) ;
#148 = ORIENTED_EDGE ( 'NONE', *, *, #84, .F. ) ;
#149 = APPROVAL ( #8, 'UNSPECIFIED' ) ;
#150 = DATE_TIME_ROLE ( 'creation_date' ) ;
#151 = CARTESIAN_POINT ( 'NONE',  ( 12.69999999999999900, 1.555301434917138400E-015, -1.500000000000000000 ) ) ;
#152 = DIRECTION ( 'NONE',  ( 0.0000000000000000000, 0.0000000000000000000, 1.000000000000000000 ) ) ;
#153 = CC_DESIGN_SECURITY_CLASSIFICATION ( #2, ( #83 ) ) ;
#154 = CARTESIAN_POINT ( 'NONE',  ( -12.69999999999999900, 0.0000000000000000000, 1.500000000000000000 ) ) ;
#155 = LOCAL_TIME ( 14, 11, 22.00000000000000000, #12 ) ;
#156 = PERSON_AND_ORGANIZATION_ROLE ( 'classification_officer' ) ;
#157 = AXIS2_PLACEMENT_3D ( 'NONE', #34, #139, #89 ) ;
#158 = COORDINATED_UNIVERSAL_TIME_OFFSET ( 5, 0, .BEHIND. ) ;
#159 = ORIENTED_EDGE ( 'NONE', *, *, #84, .T. ) ;
#160 = PERSON ( 'UNSPECIFIED', 'UNSPECIFIED', 'UNSPECIFIED', ('UNSPECIFIED'), ('UNSPECIFIED'), ('UNSPECIFIED') ) ;
#161 = EDGE_LOOP ( 'NONE', ( #136, #148 ) ) ;
#162 = ORGANIZATION ( 'UNSPECIFIED', 'UNSPECIFIED', '' ) ;
#163 = CC_DESIGN_PERSON_AND_ORGANIZATION_ASSIGNMENT ( #56, #78, ( #83 ) ) ;
#164 = APPROVAL_DATE_TIME ( #81, #149 ) ;
#165 = AXIS2_PLACEMENT_3D ( 'NONE', #171, #143, #35 ) ;
#166 = DIRECTION ( 'NONE',  ( 1.000000000000000000, 0.0000000000000000000, 0.0000000000000000000 ) ) ;
#167 = CARTESIAN_POINT ( 'NONE',  ( -12.69999999999999900, 0.0000000000000000000, -1.500000000000000000 ) ) ;
#168 = CC_DESIGN_DATE_AND_TIME_ASSIGNMENT ( #107, #128, ( #2 ) ) ;
#169 = COORDINATED_UNIVERSAL_TIME_OFFSET ( 5, 0, .BEHIND. ) ;
#170 = UNCERTAINTY_MEASURE_WITH_UNIT (LENGTH_MEASURE( 1.000000000000000100E-005 ), #72, 'distance_accuracy_value', 'NONE');
#171 = CARTESIAN_POINT ( 'NONE',  ( 0.0000000000000000000, 0.0000000000000000000, -1.500000000000000000 ) ) ;
#172 = APPROVAL_PERSON_ORGANIZATION ( #41, #149, #144 ) ;
#173 = PERSON_AND_ORGANIZATION_ROLE ( 'creator' ) ;
#174 = PRODUCT_DEFINITION ( 'UNKNOWN', '', #83, #44 ) ;
#175 = CIRCLE ( 'NONE', #165, 12.69999999999999900 ) ;
ENDSEC;
END-ISO-10303-21;
