ISO-10303-21;
HEADER;
FILE_DESCRIPTION (( 'STEP AP203' ),
    '1' );
FILE_NAME ('Web Model 33317MX_33317.step',
    '2019-05-20T15:07:38',
    ( '' ),
    ( '' ),
    'SwSTEP 2.0',
    'SolidWorks 2018',
    '' );
FILE_SCHEMA (( 'CONFIG_CONTROL_DESIGN' ));
ENDSEC;

DATA;
#1 = PERSON_AND_ORGANIZATION_ROLE ( 'creator' ) ;
#2 = MANIFOLD_SOLID_BREP ( 'Boss-Extrude2', #110 ) ;
#3 = APPROVAL_STATUS ( 'not_yet_approved' ) ;
#4 = PRODUCT ( 'Web Model 33317MX_33317', 'Web Model 33317MX_33317', '', ( #126 ) ) ;
#5 = ORIENTED_EDGE ( 'NONE', *, *, #244, .F. ) ;
#6 = LINE ( 'NONE', #319, #261 ) ;
#7 = EDGE_CURVE ( 'NONE', #97, #168, #75, .T. ) ;
#8 = EDGE_LOOP ( 'NONE', ( #56, #124, #278 ) ) ;
#9 = LOCAL_TIME ( 11, 7, 38.00000000000000000, #11 ) ;
#10 = APPROVAL_PERSON_ORGANIZATION ( #279, #196, #298 ) ;
#11 = COORDINATED_UNIVERSAL_TIME_OFFSET ( 5, 0, .BEHIND. ) ;
#12 = AXIS2_PLACEMENT_3D ( 'NONE', #123, #68, #192 ) ;
#13 = ORIENTED_EDGE ( 'NONE', *, *, #107, .F. ) ;
#14 = CARTESIAN_POINT ( 'NONE',  ( 0.0000000000000000000, -12.69999999999999929, 12.69999999999999929 ) ) ;
#15 = DIRECTION ( 'NONE',  ( -0.0000000000000000000, -0.0000000000000000000, -1.000000000000000000 ) ) ;
#16 = AXIS2_PLACEMENT_3D ( 'NONE', #39, #88, #187 ) ;
#17 = CARTESIAN_POINT ( 'NONE',  ( 0.0000000000000000000, 0.0000000000000000000, 12.69999999999999929 ) ) ;
#18 = ORIENTED_EDGE ( 'NONE', *, *, #100, .F. ) ;
#19 = DATE_AND_TIME ( #197, #227 ) ;
#20 = CARTESIAN_POINT ( 'NONE',  ( 12.69999999999999751, -12.69999999999999751, -12.69999999999999929 ) ) ;
#21 = DIRECTION ( 'NONE',  ( -1.000000000000000000, 0.0000000000000000000, 0.0000000000000000000 ) ) ;
#22 = VECTOR ( 'NONE', #15, 1000.000000000000000 ) ;
#23 = PLANE ( 'NONE',  #149 ) ;
#24 = ORIENTED_EDGE ( 'NONE', *, *, #30, .F. ) ;
#25 = EDGE_CURVE ( 'NONE', #162, #211, #173, .T. ) ;
#26 = DIRECTION ( 'NONE',  ( 0.7071067811865474617, -0.7071067811865474617, 0.0000000000000000000 ) ) ;
#27 = DATE_TIME_ROLE ( 'classification_date' ) ;
#28 = EDGE_LOOP ( 'NONE', ( #229, #128, #241, #320 ) ) ;
#29 = CC_DESIGN_DATE_AND_TIME_ASSIGNMENT ( #44, #27, ( #74 ) ) ;
#30 = EDGE_CURVE ( 'NONE', #43, #154, #52, .T. ) ;
#31 = VECTOR ( 'NONE', #63, 1000.000000000000000 ) ;
#32 = VECTOR ( 'NONE', #117, 1000.000000000000000 ) ;
#33 = FACE_OUTER_BOUND ( 'NONE', #28, .T. ) ;
#34 = CARTESIAN_POINT ( 'NONE',  ( -12.69999999999999751, 12.69999999999999751, 12.69999999999999929 ) ) ;
#35 = ORIENTED_EDGE ( 'NONE', *, *, #226, .F. ) ;
#36 = PERSON_AND_ORGANIZATION ( #301, #72 ) ;
#37 = AXIS2_PLACEMENT_3D ( 'NONE', #216, #21, #222 ) ;
#38 = CARTESIAN_POINT ( 'NONE',  ( 0.0000000000000000000, 0.0000000000000000000, -12.69999999999999929 ) ) ;
#39 = CARTESIAN_POINT ( 'NONE',  ( 0.0000000000000000000, 0.0000000000000000000, -12.69999999999999929 ) ) ;
#40 = DIRECTION ( 'NONE',  ( 1.000000000000000000, 0.0000000000000000000, 0.0000000000000000000 ) ) ;
#41 = VECTOR ( 'NONE', #235, 1000.000000000000000 ) ;
#42 = CARTESIAN_POINT ( 'NONE',  ( -12.69999999999999751, 12.69999999999999751, 12.69999999999999929 ) ) ;
#43 = VERTEX_POINT ( 'NONE', #55 ) ;
#44 = DATE_AND_TIME ( #243, #119 ) ;
#45 =( NAMED_UNIT ( * ) SI_UNIT ( $, .STERADIAN. ) SOLID_ANGLE_UNIT ( ) );
#46 = PLANE ( 'NONE',  #37 ) ;
#47 = ORIENTED_EDGE ( 'NONE', *, *, #103, .T. ) ;
#48 = PERSON_AND_ORGANIZATION ( #301, #72 ) ;
#49 = APPROVAL_STATUS ( 'not_yet_approved' ) ;
#50 = LINE ( 'NONE', #82, #303 ) ;
#51 = ORIENTED_EDGE ( 'NONE', *, *, #25, .F. ) ;
#52 = LINE ( 'NONE', #34, #121 ) ;
#53 = CALENDAR_DATE ( 2019, 20, 5 ) ;
#54 = VECTOR ( 'NONE', #313, 1000.000000000000114 ) ;
#55 = CARTESIAN_POINT ( 'NONE',  ( -12.69999999999999751, 12.69999999999999751, 12.69999999999999929 ) ) ;
#56 = ORIENTED_EDGE ( 'NONE', *, *, #274, .T. ) ;
#57 = DATE_AND_TIME ( #230, #208 ) ;
#58 = LINE ( 'NONE', #282, #54 ) ;
#59 = COORDINATED_UNIVERSAL_TIME_OFFSET ( 5, 0, .BEHIND. ) ;
#60 = DIRECTION ( 'NONE',  ( -0.0000000000000000000, 0.0000000000000000000, 1.000000000000000000 ) ) ;
#61 = CARTESIAN_POINT ( 'NONE',  ( -12.69999999999999929, -12.69999999999999929, 12.69999999999999929 ) ) ;
#62 = EDGE_CURVE ( 'NONE', #154, #307, #58, .T. ) ;
#63 = DIRECTION ( 'NONE',  ( 0.0000000000000000000, 1.000000000000000000, -0.0000000000000000000 ) ) ;
#64 = DIRECTION ( 'NONE',  ( -0.0000000000000000000, -0.0000000000000000000, -1.000000000000000000 ) ) ;
#65 = FACE_OUTER_BOUND ( 'NONE', #105, .T. ) ;
#66 = ADVANCED_FACE ( 'NONE', ( #190 ), #287, .F. ) ;
#67 = AXIS2_PLACEMENT_3D ( 'NONE', #268, #71, #95 ) ;
#68 = DIRECTION ( 'NONE',  ( 0.7071067811865475727, 0.7071067811865475727, -0.0000000000000000000 ) ) ;
#69 = ORIENTED_EDGE ( 'NONE', *, *, #62, .F. ) ;
#70 = ADVANCED_FACE ( 'NONE', ( #130 ), #86, .T. ) ;
#71 = DIRECTION ( 'NONE',  ( 0.0000000000000000000, 1.000000000000000000, 0.0000000000000000000 ) ) ;
#72 = ORGANIZATION ( 'UNSPECIFIED', 'UNSPECIFIED', '' ) ;
#73 = VERTEX_POINT ( 'NONE', #42 ) ;
#74 = SECURITY_CLASSIFICATION ( '', '', #148 ) ;
#75 = LINE ( 'NONE', #76, #275 ) ;
#76 = CARTESIAN_POINT ( 'NONE',  ( 12.69999999999999929, 0.0000000000000000000, 12.69999999999999929 ) ) ;
#77 = LINE ( 'NONE', #289, #309 ) ;
#78 = ORIENTED_EDGE ( 'NONE', *, *, #226, .T. ) ;
#79 = DIRECTION ( 'NONE',  ( -0.0000000000000000000, -0.0000000000000000000, -1.000000000000000000 ) ) ;
#80 =( GEOMETRIC_REPRESENTATION_CONTEXT ( 3 ) GLOBAL_UNCERTAINTY_ASSIGNED_CONTEXT ( ( #84 ) ) GLOBAL_UNIT_ASSIGNED_CONTEXT ( ( #118, #292, #45 ) ) REPRESENTATION_CONTEXT ( 'NONE', 'WORKASPACE' ) );
#81 = ADVANCED_BREP_SHAPE_REPRESENTATION ( 'Web Model 33317MX_33317', ( #2, #94, #272 ), #80 ) ;
#82 = CARTESIAN_POINT ( 'NONE',  ( -12.69999999999999929, 0.0000000000000000000, 12.69999999999999929 ) ) ;
#83 = CARTESIAN_POINT ( 'NONE',  ( 0.0000000000000000000, 0.0000000000000000000, 12.69999999999999929 ) ) ;
#84 = UNCERTAINTY_MEASURE_WITH_UNIT (LENGTH_MEASURE( 1.000000000000000082E-05 ), #118, 'distance_accuracy_value', 'NONE');
#85 = CARTESIAN_POINT ( 'NONE',  ( -12.69999999999999929, 0.0000000000000000000, -12.69999999999999929 ) ) ;
#86 = PLANE ( 'NONE',  #114 ) ;
#87 = PERSON_AND_ORGANIZATION ( #301, #72 ) ;
#88 = DIRECTION ( 'NONE',  ( -0.0000000000000000000, 0.0000000000000000000, 1.000000000000000000 ) ) ;
#89 = FACE_OUTER_BOUND ( 'NONE', #231, .T. ) ;
#90 = PLANE ( 'NONE',  #67 ) ;
#91 = EDGE_LOOP ( 'NONE', ( #69, #277, #18 ) ) ;
#92 = APPROVAL_PERSON_ORGANIZATION ( #294, #201, #194 ) ;
#93 = ADVANCED_FACE ( 'NONE', ( #89 ), #116, .F. ) ;
#94 = MANIFOLD_SOLID_BREP ( 'Boss-Extrude3', #143 ) ;
#95 = DIRECTION ( 'NONE',  ( 0.0000000000000000000, -0.0000000000000000000, 1.000000000000000000 ) ) ;
#96 = PERSON_AND_ORGANIZATION_ROLE ( 'creator' ) ;
#97 = VERTEX_POINT ( 'NONE', #265 ) ;
#98 = PERSON_AND_ORGANIZATION_ROLE ( 'design_owner' ) ;
#99 = PERSON_AND_ORGANIZATION ( #301, #72 ) ;
#100 = EDGE_CURVE ( 'NONE', #307, #174, #77, .T. ) ;
#101 = VECTOR ( 'NONE', #177, 1000.000000000000114 ) ;
#102 = VERTEX_POINT ( 'NONE', #61 ) ;
#103 = EDGE_CURVE ( 'NONE', #304, #162, #305, .T. ) ;
#104 = PRODUCT_DEFINITION_SHAPE ( 'NONE', 'NONE',  #165 ) ;
#105 = EDGE_LOOP ( 'NONE', ( #51, #131, #236, #106 ) ) ;
#106 = ORIENTED_EDGE ( 'NONE', *, *, #122, .T. ) ;
#107 = EDGE_CURVE ( 'NONE', #102, #266, #108, .T. ) ;
#108 = LINE ( 'NONE', #14, #170 ) ;
#109 = DIRECTION ( 'NONE',  ( 0.0000000000000000000, 1.000000000000000000, -0.0000000000000000000 ) ) ;
#110 = CLOSED_SHELL ( 'NONE', ( #271, #318, #246, #145, #66 ) ) ;
#111 = CARTESIAN_POINT ( 'NONE',  ( 12.69999999999999751, -12.69999999999999751, 12.69999999999999929 ) ) ;
#112 = APPROVAL_DATE_TIME ( #125, #180 ) ;
#113 = PLANE ( 'NONE',  #257 ) ;
#114 = AXIS2_PLACEMENT_3D ( 'NONE', #214, #238, #138 ) ;
#115 = FACE_OUTER_BOUND ( 'NONE', #91, .T. ) ;
#116 = PLANE ( 'NONE',  #234 ) ;
#117 = DIRECTION ( 'NONE',  ( 1.000000000000000000, 0.0000000000000000000, 0.0000000000000000000 ) ) ;
#118 =( LENGTH_UNIT ( ) NAMED_UNIT ( * ) SI_UNIT ( .MILLI., .METRE. ) );
#119 = LOCAL_TIME ( 11, 7, 38.00000000000000000, #178 ) ;
#120 = APPLICATION_CONTEXT ( 'configuration controlled 3d designs of mechanical parts and assemblies' ) ;
#121 = VECTOR ( 'NONE', #79, 1000.000000000000000 ) ;
#122 = EDGE_CURVE ( 'NONE', #266, #211, #276, .T. ) ;
#123 = CARTESIAN_POINT ( 'NONE',  ( 0.0000000000000000000, 0.0000000000000000000, 12.69999999999999929 ) ) ;
#124 = ORIENTED_EDGE ( 'NONE', *, *, #7, .T. ) ;
#125 = DATE_AND_TIME ( #183, #9 ) ;
#126 = MECHANICAL_CONTEXT ( 'NONE', #120, 'mechanical' ) ;
#127 = APPLICATION_PROTOCOL_DEFINITION ( 'international standard', 'config_control_design', 1994, #224 ) ;
#128 = ORIENTED_EDGE ( 'NONE', *, *, #267, .F. ) ;
#129 = AXIS2_PLACEMENT_3D ( 'NONE', #167, #193, #161 ) ;
#130 = FACE_OUTER_BOUND ( 'NONE', #8, .T. ) ;
#131 = ORIENTED_EDGE ( 'NONE', *, *, #308, .F. ) ;
#132 = EDGE_LOOP ( 'NONE', ( #135, #253, #195 ) ) ;
#133 = COORDINATED_UNIVERSAL_TIME_OFFSET ( 5, 0, .BEHIND. ) ;
#134 = LINE ( 'NONE', #111, #141 ) ;
#135 = ORIENTED_EDGE ( 'NONE', *, *, #172, .F. ) ;
#136 = CARTESIAN_POINT ( 'NONE',  ( 12.69999999999999929, 12.69999999999999929, 12.69999999999999929 ) ) ;
#137 = CARTESIAN_POINT ( 'NONE',  ( 12.69999999999999751, -12.69999999999999751, 12.69999999999999929 ) ) ;
#138 = DIRECTION ( 'NONE',  ( 1.000000000000000000, 0.0000000000000000000, 0.0000000000000000000 ) ) ;
#139 = ORIENTED_EDGE ( 'NONE', *, *, #25, .T. ) ;
#140 = CARTESIAN_POINT ( 'NONE',  ( -12.69999999999999751, 12.69999999999999751, -12.69999999999999929 ) ) ;
#141 = VECTOR ( 'NONE', #64, 1000.000000000000000 ) ;
#142 = APPLICATION_PROTOCOL_DEFINITION ( 'international standard', 'config_control_design', 1994, #120 ) ;
#143 = CLOSED_SHELL ( 'NONE', ( #316, #93, #296, #70, #166 ) ) ;
#144 = PLANE ( 'NONE',  #129 ) ;
#145 = ADVANCED_FACE ( 'NONE', ( #317 ), #113, .T. ) ;
#146 = APPROVAL_ROLE ( '' ) ;
#147 = EDGE_LOOP ( 'NONE', ( #200, #35, #151, #176 ) ) ;
#148 = SECURITY_CLASSIFICATION_LEVEL ( 'unclassified' ) ;
#149 = AXIS2_PLACEMENT_3D ( 'NONE', #297, #295, #188 ) ;
#150 = LINE ( 'NONE', #136, #22 ) ;
#151 = ORIENTED_EDGE ( 'NONE', *, *, #172, .T. ) ;
#152 = CC_DESIGN_PERSON_AND_ORGANIZATION_ASSIGNMENT ( #99, #1, ( #159 ) ) ;
#153 = CC_DESIGN_PERSON_AND_ORGANIZATION_ASSIGNMENT ( #87, #98, ( #4 ) ) ;
#154 = VERTEX_POINT ( 'NONE', #158 ) ;
#155 = DIRECTION ( 'NONE',  ( -1.000000000000000000, 0.0000000000000000000, 0.0000000000000000000 ) ) ;
#156 = FACE_OUTER_BOUND ( 'NONE', #191, .T. ) ;
#157 = CARTESIAN_POINT ( 'NONE',  ( -12.69999999999999929, -12.69999999999999929, 12.69999999999999929 ) ) ;
#158 = CARTESIAN_POINT ( 'NONE',  ( -12.69999999999999751, 12.69999999999999751, -12.69999999999999929 ) ) ;
#159 = PRODUCT_DEFINITION_FORMATION_WITH_SPECIFIED_SOURCE ( 'ANY', '', #4, .NOT_KNOWN. ) ;
#160 = CARTESIAN_POINT ( 'NONE',  ( 12.69999999999999929, 12.69999999999999929, 12.69999999999999929 ) ) ;
#161 = DIRECTION ( 'NONE',  ( -0.7071067811865474617, 0.7071067811865474617, 0.0000000000000000000 ) ) ;
#162 = VERTEX_POINT ( 'NONE', #140 ) ;
#163 = CARTESIAN_POINT ( 'NONE',  ( 0.0000000000000000000, -12.69999999999999929, -12.69999999999999929 ) ) ;
#164 = DIRECTION ( 'NONE',  ( 1.000000000000000000, 0.0000000000000000000, 0.0000000000000000000 ) ) ;
#165 = PRODUCT_DEFINITION ( 'UNKNOWN', '', #159, #262 ) ;
#166 = ADVANCED_FACE ( 'NONE', ( #115 ), #233, .F. ) ;
#167 = CARTESIAN_POINT ( 'NONE',  ( 0.0000000000000000000, 0.0000000000000000000, 12.69999999999999929 ) ) ;
#168 = VERTEX_POINT ( 'NONE', #160 ) ;
#169 = PERSON_AND_ORGANIZATION_ROLE ( 'classification_officer' ) ;
#170 = VECTOR ( 'NONE', #186, 1000.000000000000000 ) ;
#171 = ORIENTED_EDGE ( 'NONE', *, *, #300, .T. ) ;
#172 = EDGE_CURVE ( 'NONE', #102, #73, #50, .T. ) ;
#173 = LINE ( 'NONE', #258, #101 ) ;
#174 = VERTEX_POINT ( 'NONE', #212 ) ;
#175 = SHAPE_DEFINITION_REPRESENTATION ( #104, #81 ) ;
#176 = ORIENTED_EDGE ( 'NONE', *, *, #308, .T. ) ;
#177 = DIRECTION ( 'NONE',  ( 0.7071067811865474617, -0.7071067811865474617, 0.0000000000000000000 ) ) ;
#178 = COORDINATED_UNIVERSAL_TIME_OFFSET ( 5, 0, .BEHIND. ) ;
#179 = FACE_OUTER_BOUND ( 'NONE', #181, .T. ) ;
#180 = APPROVAL ( #49, 'UNSPECIFIED' ) ;
#181 = EDGE_LOOP ( 'NONE', ( #171, #270, #13, #78 ) ) ;
#182 = DIRECTION ( 'NONE',  ( 0.0000000000000000000, 1.000000000000000000, -0.0000000000000000000 ) ) ;
#183 = CALENDAR_DATE ( 2019, 20, 5 ) ;
#184 = CC_DESIGN_PERSON_AND_ORGANIZATION_ASSIGNMENT ( #36, #169, ( #74 ) ) ;
#185 = DIRECTION ( 'NONE',  ( -0.0000000000000000000, -0.0000000000000000000, -1.000000000000000000 ) ) ;
#186 = DIRECTION ( 'NONE',  ( 1.000000000000000000, 0.0000000000000000000, 0.0000000000000000000 ) ) ;
#187 = DIRECTION ( 'NONE',  ( 1.000000000000000000, 0.0000000000000000000, 0.0000000000000000000 ) ) ;
#188 = DIRECTION ( 'NONE',  ( 0.0000000000000000000, -0.0000000000000000000, 1.000000000000000000 ) ) ;
#189 = DIRECTION ( 'NONE',  ( 1.000000000000000000, 0.0000000000000000000, 0.0000000000000000000 ) ) ;
#190 = FACE_OUTER_BOUND ( 'NONE', #203, .T. ) ;
#191 = EDGE_LOOP ( 'NONE', ( #5, #24, #247, #217 ) ) ;
#192 = DIRECTION ( 'NONE',  ( -0.7071067811865474617, 0.7071067811865474617, 0.0000000000000000000 ) ) ;
#193 = DIRECTION ( 'NONE',  ( 0.7071067811865475727, 0.7071067811865475727, -0.0000000000000000000 ) ) ;
#194 = APPROVAL_ROLE ( '' ) ;
#195 = ORIENTED_EDGE ( 'NONE', *, *, #223, .F. ) ;
#196 = APPROVAL ( #273, 'UNSPECIFIED' ) ;
#197 = CALENDAR_DATE ( 2019, 20, 5 ) ;
#198 = PERSON_AND_ORGANIZATION ( #301, #72 ) ;
#199 = VECTOR ( 'NONE', #26, 1000.000000000000114 ) ;
#200 = ORIENTED_EDGE ( 'NONE', *, *, #103, .F. ) ;
#201 = APPROVAL ( #3, 'UNSPECIFIED' ) ;
#202 = CC_DESIGN_APPROVAL ( #180, ( #165 ) ) ;
#203 = EDGE_LOOP ( 'NONE', ( #47, #139, #283 ) ) ;
#204 = CC_DESIGN_APPROVAL ( #201, ( #74 ) ) ;
#205 = VECTOR ( 'NONE', #185, 1000.000000000000000 ) ;
#206 = EDGE_CURVE ( 'NONE', #43, #168, #228, .T. ) ;
#207 = ORIENTED_EDGE ( 'NONE', *, *, #7, .F. ) ;
#208 = LOCAL_TIME ( 11, 7, 38.00000000000000000, #133 ) ;
#209 = CC_DESIGN_SECURITY_CLASSIFICATION ( #74, ( #159 ) ) ;
#210 = DIRECTION ( 'NONE',  ( 0.0000000000000000000, 0.0000000000000000000, 1.000000000000000000 ) ) ;
#211 = VERTEX_POINT ( 'NONE', #20 ) ;
#212 = CARTESIAN_POINT ( 'NONE',  ( 12.69999999999999929, 12.69999999999999929, -12.69999999999999929 ) ) ;
#213 = EDGE_CURVE ( 'NONE', #168, #174, #150, .T. ) ;
#214 = CARTESIAN_POINT ( 'NONE',  ( 0.0000000000000000000, 0.0000000000000000000, 12.69999999999999929 ) ) ;
#215 = CARTESIAN_POINT ( 'NONE',  ( -0.0000000000000000000, 12.69999999999999929, -12.69999999999999929 ) ) ;
#216 = CARTESIAN_POINT ( 'NONE',  ( -12.69999999999999929, 0.0000000000000000000, 12.69999999999999929 ) ) ;
#217 = ORIENTED_EDGE ( 'NONE', *, *, #213, .T. ) ;
#218 = DIRECTION ( 'NONE',  ( -0.0000000000000000000, -0.0000000000000000000, -1.000000000000000000 ) ) ;
#219 = PRODUCT_RELATED_PRODUCT_CATEGORY ( 'detail', '', ( #4 ) ) ;
#220 = CC_DESIGN_PERSON_AND_ORGANIZATION_ASSIGNMENT ( #48, #96, ( #165 ) ) ;
#221 = CARTESIAN_POINT ( 'NONE',  ( 12.69999999999999751, -12.69999999999999751, -12.69999999999999929 ) ) ;
#222 = DIRECTION ( 'NONE',  ( 0.0000000000000000000, 0.0000000000000000000, 1.000000000000000000 ) ) ;
#223 = EDGE_CURVE ( 'NONE', #73, #266, #251, .T. ) ;
#224 = APPLICATION_CONTEXT ( 'configuration controlled 3d designs of mechanical parts and assemblies' ) ;
#225 = VECTOR ( 'NONE', #189, 1000.000000000000000 ) ;
#226 = EDGE_CURVE ( 'NONE', #102, #304, #314, .T. ) ;
#227 = LOCAL_TIME ( 11, 7, 38.00000000000000000, #237 ) ;
#228 = LINE ( 'NONE', #264, #41 ) ;
#229 = ORIENTED_EDGE ( 'NONE', *, *, #62, .T. ) ;
#230 = CALENDAR_DATE ( 2019, 20, 5 ) ;
#231 = EDGE_LOOP ( 'NONE', ( #263, #302, #207, #315 ) ) ;
#232 = VECTOR ( 'NONE', #312, 1000.000000000000114 ) ;
#233 = PLANE ( 'NONE',  #252 ) ;
#234 = AXIS2_PLACEMENT_3D ( 'NONE', #310, #155, #210 ) ;
#235 = DIRECTION ( 'NONE',  ( 1.000000000000000000, 0.0000000000000000000, 0.0000000000000000000 ) ) ;
#236 = ORIENTED_EDGE ( 'NONE', *, *, #223, .T. ) ;
#237 = COORDINATED_UNIVERSAL_TIME_OFFSET ( 5, 0, .BEHIND. ) ;
#238 = DIRECTION ( 'NONE',  ( -0.0000000000000000000, 0.0000000000000000000, 1.000000000000000000 ) ) ;
#239 = FACE_OUTER_BOUND ( 'NONE', #147, .T. ) ;
#240 = DIRECTION ( 'NONE',  ( -0.0000000000000000000, -0.0000000000000000000, -1.000000000000000000 ) ) ;
#241 = ORIENTED_EDGE ( 'NONE', *, *, #274, .F. ) ;
#242 = CARTESIAN_POINT ( 'NONE',  ( 12.69999999999999751, -12.69999999999999751, 12.69999999999999929 ) ) ;
#243 = CALENDAR_DATE ( 2019, 20, 5 ) ;
#244 = EDGE_CURVE ( 'NONE', #154, #174, #255, .T. ) ;
#245 = PLANE ( 'NONE',  #12 ) ;
#246 = ADVANCED_FACE ( 'NONE', ( #65 ), #144, .T. ) ;
#247 = ORIENTED_EDGE ( 'NONE', *, *, #206, .T. ) ;
#248 = CARTESIAN_POINT ( 'NONE',  ( 0.0000000000000000000, 0.0000000000000000000, 0.0000000000000000000 ) ) ;
#249 = APPROVAL_DATE_TIME ( #259, #201 ) ;
#250 = DATE_TIME_ROLE ( 'creation_date' ) ;
#251 = LINE ( 'NONE', #83, #232 ) ;
#252 = AXIS2_PLACEMENT_3D ( 'NONE', #38, #60, #288 ) ;
#253 = ORIENTED_EDGE ( 'NONE', *, *, #107, .T. ) ;
#254 = PERSON_AND_ORGANIZATION ( #301, #72 ) ;
#255 = LINE ( 'NONE', #215, #32 ) ;
#256 = LOCAL_TIME ( 11, 7, 38.00000000000000000, #59 ) ;
#257 = AXIS2_PLACEMENT_3D ( 'NONE', #17, #284, #40 ) ;
#258 = CARTESIAN_POINT ( 'NONE',  ( -0.0000000000000000000, 0.0000000000000000000, -12.69999999999999929 ) ) ;
#259 = DATE_AND_TIME ( #53, #256 ) ;
#260 = APPROVAL_DATE_TIME ( #57, #196 ) ;
#261 = VECTOR ( 'NONE', #218, 1000.000000000000000 ) ;
#262 = DESIGN_CONTEXT ( 'detailed design', #224, 'design' ) ;
#263 = ORIENTED_EDGE ( 'NONE', *, *, #100, .T. ) ;
#264 = CARTESIAN_POINT ( 'NONE',  ( 0.0000000000000000000, 12.69999999999999929, 12.69999999999999929 ) ) ;
#265 = CARTESIAN_POINT ( 'NONE',  ( 12.69999999999999751, -12.69999999999999751, 12.69999999999999929 ) ) ;
#266 = VERTEX_POINT ( 'NONE', #242 ) ;
#267 = EDGE_CURVE ( 'NONE', #97, #307, #134, .T. ) ;
#268 = CARTESIAN_POINT ( 'NONE',  ( 0.0000000000000000000, -12.69999999999999929, 12.69999999999999929 ) ) ;
#269 = CARTESIAN_POINT ( 'NONE',  ( -12.69999999999999929, -12.69999999999999929, -12.69999999999999929 ) ) ;
#270 = ORIENTED_EDGE ( 'NONE', *, *, #122, .F. ) ;
#271 = ADVANCED_FACE ( 'NONE', ( #239 ), #46, .T. ) ;
#272 = AXIS2_PLACEMENT_3D ( 'NONE', #248, #293, #164 ) ;
#273 = APPROVAL_STATUS ( 'not_yet_approved' ) ;
#274 = EDGE_CURVE ( 'NONE', #43, #97, #290, .T. ) ;
#275 = VECTOR ( 'NONE', #306, 1000.000000000000000 ) ;
#276 = LINE ( 'NONE', #137, #281 ) ;
#277 = ORIENTED_EDGE ( 'NONE', *, *, #244, .T. ) ;
#278 = ORIENTED_EDGE ( 'NONE', *, *, #206, .F. ) ;
#279 = PERSON_AND_ORGANIZATION ( #301, #72 ) ;
#280 = APPROVAL_PERSON_ORGANIZATION ( #198, #180, #146 ) ;
#281 = VECTOR ( 'NONE', #240, 1000.000000000000000 ) ;
#282 = CARTESIAN_POINT ( 'NONE',  ( -0.0000000000000000000, 0.0000000000000000000, -12.69999999999999929 ) ) ;
#283 = ORIENTED_EDGE ( 'NONE', *, *, #300, .F. ) ;
#284 = DIRECTION ( 'NONE',  ( -0.0000000000000000000, 0.0000000000000000000, 1.000000000000000000 ) ) ;
#285 = CC_DESIGN_DATE_AND_TIME_ASSIGNMENT ( #19, #250, ( #165 ) ) ;
#286 = LINE ( 'NONE', #163, #225 ) ;
#287 = PLANE ( 'NONE',  #16 ) ;
#288 = DIRECTION ( 'NONE',  ( 1.000000000000000000, 0.0000000000000000000, 0.0000000000000000000 ) ) ;
#289 = CARTESIAN_POINT ( 'NONE',  ( 12.69999999999999929, 0.0000000000000000000, -12.69999999999999929 ) ) ;
#290 = LINE ( 'NONE', #291, #199 ) ;
#291 = CARTESIAN_POINT ( 'NONE',  ( 0.0000000000000000000, 0.0000000000000000000, 12.69999999999999929 ) ) ;
#292 =( NAMED_UNIT ( * ) PLANE_ANGLE_UNIT ( ) SI_UNIT ( $, .RADIAN. ) );
#293 = DIRECTION ( 'NONE',  ( 0.0000000000000000000, 0.0000000000000000000, 1.000000000000000000 ) ) ;
#294 = PERSON_AND_ORGANIZATION ( #301, #72 ) ;
#295 = DIRECTION ( 'NONE',  ( 0.0000000000000000000, 1.000000000000000000, 0.0000000000000000000 ) ) ;
#296 = ADVANCED_FACE ( 'NONE', ( #156 ), #23, .T. ) ;
#297 = CARTESIAN_POINT ( 'NONE',  ( 0.0000000000000000000, 12.69999999999999929, 12.69999999999999929 ) ) ;
#298 = APPROVAL_ROLE ( '' ) ;
#299 = PERSON_AND_ORGANIZATION_ROLE ( 'design_supplier' ) ;
#300 = EDGE_CURVE ( 'NONE', #304, #211, #286, .T. ) ;
#301 = PERSON ( 'UNSPECIFIED', 'UNSPECIFIED', 'UNSPECIFIED', ('UNSPECIFIED'), ('UNSPECIFIED'), ('UNSPECIFIED') ) ;
#302 = ORIENTED_EDGE ( 'NONE', *, *, #213, .F. ) ;
#303 = VECTOR ( 'NONE', #109, 1000.000000000000000 ) ;
#304 = VERTEX_POINT ( 'NONE', #269 ) ;
#305 = LINE ( 'NONE', #85, #31 ) ;
#306 = DIRECTION ( 'NONE',  ( 0.0000000000000000000, 1.000000000000000000, -0.0000000000000000000 ) ) ;
#307 = VERTEX_POINT ( 'NONE', #221 ) ;
#308 = EDGE_CURVE ( 'NONE', #73, #162, #6, .T. ) ;
#309 = VECTOR ( 'NONE', #182, 1000.000000000000000 ) ;
#310 = CARTESIAN_POINT ( 'NONE',  ( 12.69999999999999929, 0.0000000000000000000, 12.69999999999999929 ) ) ;
#311 = CC_DESIGN_APPROVAL ( #196, ( #159 ) ) ;
#312 = DIRECTION ( 'NONE',  ( 0.7071067811865474617, -0.7071067811865474617, 0.0000000000000000000 ) ) ;
#313 = DIRECTION ( 'NONE',  ( 0.7071067811865474617, -0.7071067811865474617, 0.0000000000000000000 ) ) ;
#314 = LINE ( 'NONE', #157, #205 ) ;
#315 = ORIENTED_EDGE ( 'NONE', *, *, #267, .T. ) ;
#316 = ADVANCED_FACE ( 'NONE', ( #33 ), #245, .F. ) ;
#317 = FACE_OUTER_BOUND ( 'NONE', #132, .T. ) ;
#318 = ADVANCED_FACE ( 'NONE', ( #179 ), #90, .F. ) ;
#319 = CARTESIAN_POINT ( 'NONE',  ( -12.69999999999999751, 12.69999999999999751, 12.69999999999999929 ) ) ;
#320 = ORIENTED_EDGE ( 'NONE', *, *, #30, .T. ) ;
#321 = CC_DESIGN_PERSON_AND_ORGANIZATION_ASSIGNMENT ( #254, #299, ( #159 ) ) ;
ENDSEC;
END-ISO-10303-21;
