ISO-10303-21;
HEADER;
FILE_DESCRIPTION (( 'STEP AP203' ),
    '1' );
FILE_NAME ('Web Model 37688_39001.step',
    '2018-10-18T19:42:29',
    ( '' ),
    ( '' ),
    'SwSTEP 2.0',
    'SolidWorks 2016',
    '' );
FILE_SCHEMA (( 'CONFIG_CONTROL_DESIGN' ));
ENDSEC;

DATA;
#1 = AXIS2_PLACEMENT_3D ( 'NONE', #112, #89, #48 ) ;
#2 = APPROVAL_ROLE ( '' ) ;
#3 = CALENDAR_DATE ( 2018, 18, 10 ) ;
#4 = VERTEX_POINT ( 'NONE', #139 ) ;
#5 = COORDINATED_UNIVERSAL_TIME_OFFSET ( 5, 0, .BEHIND. ) ;
#6 = DIRECTION ( 'NONE',  ( 0.0000000000000000000, 0.0000000000000000000, 1.000000000000000000 ) ) ;
#7 = CC_DESIGN_APPROVAL ( #127, ( #85 ) ) ;
#8 = CARTESIAN_POINT ( 'NONE',  ( 6.349999999999999600, 7.776507174585692200E-016, 3.174999999999999800 ) ) ;
#9 = FACE_OUTER_BOUND ( 'NONE', #114, .T. ) ;
#10 = MECHANICAL_CONTEXT ( 'NONE', #97, 'mechanical' ) ;
#11 = EDGE_CURVE ( 'NONE', #99, #22, #102, .T. ) ;
#12 = ORIENTED_EDGE ( 'NONE', *, *, #170, .T. ) ;
#13 =( NAMED_UNIT ( * ) SI_UNIT ( $, .STERADIAN. ) SOLID_ANGLE_UNIT ( ) );
#14 = PERSON_AND_ORGANIZATION_ROLE ( 'creator' ) ;
#15 = COORDINATED_UNIVERSAL_TIME_OFFSET ( 5, 0, .BEHIND. ) ;
#16 = ORIENTED_EDGE ( 'NONE', *, *, #57, .F. ) ;
#17 = APPROVAL_PERSON_ORGANIZATION ( #131, #150, #82 ) ;
#18 = DATE_AND_TIME ( #56, #92 ) ;
#19 = EDGE_CURVE ( 'NONE', #22, #99, #152, .T. ) ;
#20 = PERSON_AND_ORGANIZATION ( #41, #71 ) ;
#21 = ADVANCED_FACE ( 'NONE', ( #9 ), #159, .T. ) ;
#22 = VERTEX_POINT ( 'NONE', #173 ) ;
#23 = CARTESIAN_POINT ( 'NONE',  ( -6.349999999999999600, 0.0000000000000000000, -3.174999999999999800 ) ) ;
#24 = PERSON_AND_ORGANIZATION ( #41, #71 ) ;
#25 = DIRECTION ( 'NONE',  ( -1.000000000000000000, 0.0000000000000000000, 0.0000000000000000000 ) ) ;
#26 = AXIS2_PLACEMENT_3D ( 'NONE', #59, #93, #25 ) ;
#27 =( LENGTH_UNIT ( ) NAMED_UNIT ( * ) SI_UNIT ( .MILLI., .METRE. ) );
#28 = CARTESIAN_POINT ( 'NONE',  ( 0.0000000000000000000, 0.0000000000000000000, 0.0000000000000000000 ) ) ;
#29 = UNCERTAINTY_MEASURE_WITH_UNIT (LENGTH_MEASURE( 1.000000000000000100E-005 ), #27, 'distance_accuracy_value', 'NONE');
#30 = PERSON_AND_ORGANIZATION ( #41, #71 ) ;
#31 = AXIS2_PLACEMENT_3D ( 'NONE', #142, #51, #68 ) ;
#32 = AXIS2_PLACEMENT_3D ( 'NONE', #78, #6, #111 ) ;
#33 = EDGE_LOOP ( 'NONE', ( #16, #43 ) ) ;
#34 = SECURITY_CLASSIFICATION_LEVEL ( 'unclassified' ) ;
#35 = MANIFOLD_SOLID_BREP ( 'Boss-Extrude1', #74 ) ;
#36 = PERSON_AND_ORGANIZATION_ROLE ( 'design_supplier' ) ;
#37 = ORIENTED_EDGE ( 'NONE', *, *, #122, .T. ) ;
#38 = APPLICATION_PROTOCOL_DEFINITION ( 'international standard', 'config_control_design', 1994, #70 ) ;
#39 = CC_DESIGN_DATE_AND_TIME_ASSIGNMENT ( #163, #115, ( #67 ) ) ;
#40 = CALENDAR_DATE ( 2018, 18, 10 ) ;
#41 = PERSON ( 'UNSPECIFIED', 'UNSPECIFIED', 'UNSPECIFIED', ('UNSPECIFIED'), ('UNSPECIFIED'), ('UNSPECIFIED') ) ;
#42 = SHAPE_DEFINITION_REPRESENTATION ( #103, #143 ) ;
#43 = ORIENTED_EDGE ( 'NONE', *, *, #122, .F. ) ;
#44 = DIRECTION ( 'NONE',  ( 1.000000000000000000, 0.0000000000000000000, 0.0000000000000000000 ) ) ;
#45 = DATE_AND_TIME ( #84, #129 ) ;
#46 = DIRECTION ( 'NONE',  ( 1.000000000000000000, 0.0000000000000000000, 0.0000000000000000000 ) ) ;
#47 = ADVANCED_FACE ( 'NONE', ( #105 ), #126, .F. ) ;
#48 = DIRECTION ( 'NONE',  ( 1.000000000000000000, 0.0000000000000000000, 0.0000000000000000000 ) ) ;
#49 = PRODUCT_RELATED_PRODUCT_CATEGORY ( 'detail', '', ( #73 ) ) ;
#50 = PERSON_AND_ORGANIZATION_ROLE ( 'classification_officer' ) ;
#51 = DIRECTION ( 'NONE',  ( 0.0000000000000000000, 0.0000000000000000000, 1.000000000000000000 ) ) ;
#52 = LOCAL_TIME ( 15, 42, 29.00000000000000000, #15 ) ;
#53 = PERSON_AND_ORGANIZATION_ROLE ( 'creator' ) ;
#54 = EDGE_LOOP ( 'NONE', ( #158, #133, #151, #72 ) ) ;
#55 = CC_DESIGN_PERSON_AND_ORGANIZATION_ASSIGNMENT ( #124, #156, ( #73 ) ) ;
#56 = CALENDAR_DATE ( 2018, 18, 10 ) ;
#57 = EDGE_CURVE ( 'NONE', #60, #4, #66, .T. ) ;
#58 = LOCAL_TIME ( 15, 42, 29.00000000000000000, #5 ) ;
#59 = CARTESIAN_POINT ( 'NONE',  ( 0.0000000000000000000, 0.0000000000000000000, 3.174999999999999800 ) ) ;
#60 = VERTEX_POINT ( 'NONE', #23 ) ;
#61 = DIRECTION ( 'NONE',  ( -0.0000000000000000000, -0.0000000000000000000, -1.000000000000000000 ) ) ;
#62 = CARTESIAN_POINT ( 'NONE',  ( 0.0000000000000000000, 0.0000000000000000000, 3.174999999999999800 ) ) ;
#63 = CC_DESIGN_PERSON_AND_ORGANIZATION_ASSIGNMENT ( #153, #53, ( #67 ) ) ;
#64 = LOCAL_TIME ( 15, 42, 29.00000000000000000, #96 ) ;
#65 = DIRECTION ( 'NONE',  ( -0.0000000000000000000, -0.0000000000000000000, -1.000000000000000000 ) ) ;
#66 = CIRCLE ( 'NONE', #120, 6.349999999999999600 ) ;
#67 = PRODUCT_DEFINITION ( 'UNKNOWN', '', #85, #155 ) ;
#68 = DIRECTION ( 'NONE',  ( 1.000000000000000000, 0.0000000000000000000, 0.0000000000000000000 ) ) ;
#69 = LINE ( 'NONE', #154, #136 ) ;
#70 = APPLICATION_CONTEXT ( 'configuration controlled 3d designs of mechanical parts and assemblies' ) ;
#71 = ORGANIZATION ( 'UNSPECIFIED', 'UNSPECIFIED', '' ) ;
#72 = ORIENTED_EDGE ( 'NONE', *, *, #57, .T. ) ;
#73 = PRODUCT ( 'Web Model 37688_39001', 'Web Model 37688_39001', '', ( #10 ) ) ;
#74 = CLOSED_SHELL ( 'NONE', ( #21, #106, #87, #47 ) ) ;
#75 = CC_DESIGN_APPROVAL ( #95, ( #67 ) ) ;
#76 = CARTESIAN_POINT ( 'NONE',  ( 6.349999999999999600, 7.776507174585692200E-016, 3.174999999999999800 ) ) ;
#77 = AXIS2_PLACEMENT_3D ( 'NONE', #28, #83, #98 ) ;
#78 = CARTESIAN_POINT ( 'NONE',  ( 0.0000000000000000000, 0.0000000000000000000, 3.174999999999999800 ) ) ;
#79 = DIRECTION ( 'NONE',  ( 0.0000000000000000000, 0.0000000000000000000, 1.000000000000000000 ) ) ;
#80 = AXIS2_PLACEMENT_3D ( 'NONE', #171, #79, #113 ) ;
#81 = PERSON_AND_ORGANIZATION ( #41, #71 ) ;
#82 = APPROVAL_ROLE ( '' ) ;
#83 = DIRECTION ( 'NONE',  ( 0.0000000000000000000, 0.0000000000000000000, 1.000000000000000000 ) ) ;
#84 = CALENDAR_DATE ( 2018, 18, 10 ) ;
#85 = PRODUCT_DEFINITION_FORMATION_WITH_SPECIFIED_SOURCE ( 'ANY', '', #73, .NOT_KNOWN. ) ;
#86 = APPROVAL_DATE_TIME ( #146, #95 ) ;
#87 = ADVANCED_FACE ( 'NONE', ( #148 ), #90, .T. ) ;
#88 = COORDINATED_UNIVERSAL_TIME_OFFSET ( 5, 0, .BEHIND. ) ;
#89 = DIRECTION ( 'NONE',  ( 0.0000000000000000000, 0.0000000000000000000, 1.000000000000000000 ) ) ;
#90 = PLANE ( 'NONE',  #32 ) ;
#91 = ORIENTED_EDGE ( 'NONE', *, *, #11, .F. ) ;
#92 = LOCAL_TIME ( 15, 42, 29.00000000000000000, #132 ) ;
#93 = DIRECTION ( 'NONE',  ( -0.0000000000000000000, -0.0000000000000000000, -1.000000000000000000 ) ) ;
#94 = APPROVAL_ROLE ( '' ) ;
#95 = APPROVAL ( #118, 'UNSPECIFIED' ) ;
#96 = COORDINATED_UNIVERSAL_TIME_OFFSET ( 5, 0, .BEHIND. ) ;
#97 = APPLICATION_CONTEXT ( 'configuration controlled 3d designs of mechanical parts and assemblies' ) ;
#98 = DIRECTION ( 'NONE',  ( 1.000000000000000000, 0.0000000000000000000, 0.0000000000000000000 ) ) ;
#99 = VERTEX_POINT ( 'NONE', #76 ) ;
#100 = DATE_AND_TIME ( #3, #58 ) ;
#101 = LINE ( 'NONE', #8, #169 ) ;
#102 = CIRCLE ( 'NONE', #1, 6.349999999999999600 ) ;
#103 = PRODUCT_DEFINITION_SHAPE ( 'NONE', 'NONE',  #67 ) ;
#104 = EDGE_CURVE ( 'NONE', #22, #60, #69, .T. ) ;
#105 = FACE_OUTER_BOUND ( 'NONE', #33, .T. ) ;
#106 = ADVANCED_FACE ( 'NONE', ( #157 ), #144, .T. ) ;
#107 = AXIS2_PLACEMENT_3D ( 'NONE', #62, #128, #44 ) ;
#108 = ORIENTED_EDGE ( 'NONE', *, *, #19, .T. ) ;
#109 = DIRECTION ( 'NONE',  ( 0.0000000000000000000, 0.0000000000000000000, 1.000000000000000000 ) ) ;
#110 = CC_DESIGN_PERSON_AND_ORGANIZATION_ASSIGNMENT ( #30, #36, ( #85 ) ) ;
#111 = DIRECTION ( 'NONE',  ( 1.000000000000000000, 0.0000000000000000000, -0.0000000000000000000 ) ) ;
#112 = CARTESIAN_POINT ( 'NONE',  ( 0.0000000000000000000, 0.0000000000000000000, 3.174999999999999800 ) ) ;
#113 = DIRECTION ( 'NONE',  ( 1.000000000000000000, 0.0000000000000000000, -0.0000000000000000000 ) ) ;
#114 = EDGE_LOOP ( 'NONE', ( #91, #12, #37, #174 ) ) ;
#115 = DATE_TIME_ROLE ( 'creation_date' ) ;
#116 = AXIS2_PLACEMENT_3D ( 'NONE', #140, #162, #172 ) ;
#117 = APPLICATION_PROTOCOL_DEFINITION ( 'international standard', 'config_control_design', 1994, #97 ) ;
#118 = APPROVAL_STATUS ( 'not_yet_approved' ) ;
#119 = APPROVAL_DATE_TIME ( #100, #127 ) ;
#120 = AXIS2_PLACEMENT_3D ( 'NONE', #138, #109, #46 ) ;
#121 = EDGE_LOOP ( 'NONE', ( #108, #149 ) ) ;
#122 = EDGE_CURVE ( 'NONE', #4, #60, #141, .T. ) ;
#123 = SECURITY_CLASSIFICATION ( '', '', #34 ) ;
#124 = PERSON_AND_ORGANIZATION ( #41, #71 ) ;
#125 =( GEOMETRIC_REPRESENTATION_CONTEXT ( 3 ) GLOBAL_UNCERTAINTY_ASSIGNED_CONTEXT ( ( #29 ) ) GLOBAL_UNIT_ASSIGNED_CONTEXT ( ( #27, #175, #13 ) ) REPRESENTATION_CONTEXT ( 'NONE', 'WORKASPACE' ) );
#126 = PLANE ( 'NONE',  #80 ) ;
#127 = APPROVAL ( #145, 'UNSPECIFIED' ) ;
#128 = DIRECTION ( 'NONE',  ( 0.0000000000000000000, 0.0000000000000000000, 1.000000000000000000 ) ) ;
#129 = LOCAL_TIME ( 15, 42, 29.00000000000000000, #88 ) ;
#130 = CC_DESIGN_PERSON_AND_ORGANIZATION_ASSIGNMENT ( #20, #50, ( #123 ) ) ;
#131 = PERSON_AND_ORGANIZATION ( #41, #71 ) ;
#132 = COORDINATED_UNIVERSAL_TIME_OFFSET ( 5, 0, .BEHIND. ) ;
#133 = ORIENTED_EDGE ( 'NONE', *, *, #19, .F. ) ;
#134 = CC_DESIGN_PERSON_AND_ORGANIZATION_ASSIGNMENT ( #167, #14, ( #85 ) ) ;
#135 = CALENDAR_DATE ( 2018, 18, 10 ) ;
#136 = VECTOR ( 'NONE', #61, 1000.000000000000000 ) ;
#137 = APPROVAL_PERSON_ORGANIZATION ( #81, #95, #94 ) ;
#138 = CARTESIAN_POINT ( 'NONE',  ( 0.0000000000000000000, 0.0000000000000000000, -3.174999999999999800 ) ) ;
#139 = CARTESIAN_POINT ( 'NONE',  ( 6.349999999999999600, 7.776507174585692200E-016, -3.174999999999999800 ) ) ;
#140 = CARTESIAN_POINT ( 'NONE',  ( 0.0000000000000000000, 0.0000000000000000000, 3.174999999999999800 ) ) ;
#141 = CIRCLE ( 'NONE', #31, 6.349999999999999600 ) ;
#142 = CARTESIAN_POINT ( 'NONE',  ( 0.0000000000000000000, 0.0000000000000000000, -3.174999999999999800 ) ) ;
#143 = ADVANCED_BREP_SHAPE_REPRESENTATION ( 'Web Model 37688_39001', ( #35, #77 ), #125 ) ;
#144 = CYLINDRICAL_SURFACE ( 'NONE', #116, 6.349999999999999600 ) ;
#145 = APPROVAL_STATUS ( 'not_yet_approved' ) ;
#146 = DATE_AND_TIME ( #40, #52 ) ;
#147 = CC_DESIGN_DATE_AND_TIME_ASSIGNMENT ( #18, #165, ( #123 ) ) ;
#148 = FACE_OUTER_BOUND ( 'NONE', #121, .T. ) ;
#149 = ORIENTED_EDGE ( 'NONE', *, *, #11, .T. ) ;
#150 = APPROVAL ( #164, 'UNSPECIFIED' ) ;
#151 = ORIENTED_EDGE ( 'NONE', *, *, #104, .T. ) ;
#152 = CIRCLE ( 'NONE', #107, 6.349999999999999600 ) ;
#153 = PERSON_AND_ORGANIZATION ( #41, #71 ) ;
#154 = CARTESIAN_POINT ( 'NONE',  ( -6.349999999999999600, 0.0000000000000000000, 3.174999999999999800 ) ) ;
#155 = DESIGN_CONTEXT ( 'detailed design', #70, 'design' ) ;
#156 = PERSON_AND_ORGANIZATION_ROLE ( 'design_owner' ) ;
#157 = FACE_OUTER_BOUND ( 'NONE', #54, .T. ) ;
#158 = ORIENTED_EDGE ( 'NONE', *, *, #170, .F. ) ;
#159 = CYLINDRICAL_SURFACE ( 'NONE', #26, 6.349999999999999600 ) ;
#160 = APPROVAL_DATE_TIME ( #45, #150 ) ;
#161 = CC_DESIGN_APPROVAL ( #150, ( #123 ) ) ;
#162 = DIRECTION ( 'NONE',  ( -0.0000000000000000000, -0.0000000000000000000, -1.000000000000000000 ) ) ;
#163 = DATE_AND_TIME ( #135, #64 ) ;
#164 = APPROVAL_STATUS ( 'not_yet_approved' ) ;
#165 = DATE_TIME_ROLE ( 'classification_date' ) ;
#166 = APPROVAL_PERSON_ORGANIZATION ( #24, #127, #2 ) ;
#167 = PERSON_AND_ORGANIZATION ( #41, #71 ) ;
#168 = CC_DESIGN_SECURITY_CLASSIFICATION ( #123, ( #85 ) ) ;
#169 = VECTOR ( 'NONE', #65, 1000.000000000000000 ) ;
#170 = EDGE_CURVE ( 'NONE', #99, #4, #101, .T. ) ;
#171 = CARTESIAN_POINT ( 'NONE',  ( 0.0000000000000000000, 0.0000000000000000000, -3.174999999999999800 ) ) ;
#172 = DIRECTION ( 'NONE',  ( -1.000000000000000000, 0.0000000000000000000, 0.0000000000000000000 ) ) ;
#173 = CARTESIAN_POINT ( 'NONE',  ( -6.349999999999999600, 0.0000000000000000000, 3.174999999999999800 ) ) ;
#174 = ORIENTED_EDGE ( 'NONE', *, *, #104, .F. ) ;
#175 =( NAMED_UNIT ( * ) PLANE_ANGLE_UNIT ( ) SI_UNIT ( $, .RADIAN. ) );
ENDSEC;
END-ISO-10303-21;
