ISO-10303-21;
HEADER;
FILE_DESCRIPTION (( 'STEP AP203' ),
    '1' );
FILE_NAME ('Web Model 20207_20207.step',
    '2022-03-01T15:52:37',
    ( '' ),
    ( '' ),
    'SwSTEP 2.0',
    'SolidWorks 2021',
    '' );
FILE_SCHEMA (( 'CONFIG_CONTROL_DESIGN' ));
ENDSEC;

DATA;
#1 = DATE_TIME_ROLE ( 'creation_date' ) ;
#2 = CIRCLE ( 'NONE', #154, 2.500000000000000000 ) ;
#3 = APPROVAL_PERSON_ORGANIZATION ( #63, #80, #14 ) ;
#4 = EDGE_CURVE ( 'NONE', #165, #126, #109, .T. ) ;
#5 = VECTOR ( 'NONE', #39, 1000.000000000000000 ) ;
#6 = AXIS2_PLACEMENT_3D ( 'NONE', #21, #96, #125 ) ;
#7 = COORDINATED_UNIVERSAL_TIME_OFFSET ( 5, 0, .BEHIND. ) ;
#8 = VERTEX_POINT ( 'NONE', #56 ) ;
#9 = CARTESIAN_POINT ( 'NONE',  ( 2.500000000000000000, 3.061616997868383141E-16, 0.000000000000000000 ) ) ;
#10 = ORIENTED_EDGE ( 'NONE', *, *, #18, .F. ) ;
#11 = CC_DESIGN_APPROVAL ( #55, ( #36 ) ) ;
#12 = ORIENTED_EDGE ( 'NONE', *, *, #124, .F. ) ;
#13 = CARTESIAN_POINT ( 'NONE',  ( -2.500000000000000000, 0.000000000000000000, 0.1000000000000000056 ) ) ;
#14 = APPROVAL_ROLE ( '' ) ;
#15 = APPLICATION_PROTOCOL_DEFINITION ( 'international standard', 'config_control_design', 1994, #170 ) ;
#16 = CC_DESIGN_APPROVAL ( #85, ( #25 ) ) ;
#17 = SHAPE_DEFINITION_REPRESENTATION ( #133, #174 ) ;
#18 = EDGE_CURVE ( 'NONE', #8, #73, #29, .T. ) ;
#19 = CALENDAR_DATE ( 2022, 1, 3 ) ;
#20 = ORIENTED_EDGE ( 'NONE', *, *, #32, .T. ) ;
#21 = CARTESIAN_POINT ( 'NONE',  ( 0.000000000000000000, 0.000000000000000000, 0.1000000000000000056 ) ) ;
#22 = CC_DESIGN_PERSON_AND_ORGANIZATION_ASSIGNMENT ( #138, #121, ( #25 ) ) ;
#23 = EDGE_LOOP ( 'NONE', ( #10, #72 ) ) ;
#24 = PLANE ( 'NONE',  #35 ) ;
#25 = SECURITY_CLASSIFICATION ( '', '', #122 ) ;
#26 = CYLINDRICAL_SURFACE ( 'NONE', #107, 2.500000000000000000 ) ;
#27 = ADVANCED_FACE ( 'NONE', ( #38 ), #24, .F. ) ;
#28 = PERSON ( 'UNSPECIFIED', 'UNSPECIFIED', 'UNSPECIFIED', ('UNSPECIFIED'), ('UNSPECIFIED'), ('UNSPECIFIED') ) ;
#29 = CIRCLE ( 'NONE', #172, 2.500000000000000000 ) ;
#30 = CYLINDRICAL_SURFACE ( 'NONE', #77, 2.500000000000000000 ) ;
#31 = PRODUCT ( 'Web Model 20207_20207', 'Web Model 20207_20207', '', ( #102 ) ) ;
#32 = EDGE_CURVE ( 'NONE', #126, #73, #45, .T. ) ;
#33 = DATE_AND_TIME ( #145, #95 ) ;
#34 = DATE_AND_TIME ( #91, #149 ) ;
#35 = AXIS2_PLACEMENT_3D ( 'NONE', #123, #82, #53 ) ;
#36 = PRODUCT_DEFINITION_FORMATION_WITH_SPECIFIED_SOURCE ( 'ANY', '', #31, .NOT_KNOWN. ) ;
#37 = DIRECTION ( 'NONE',  ( 1.000000000000000000, 0.000000000000000000, 0.000000000000000000 ) ) ;
#38 = FACE_OUTER_BOUND ( 'NONE', #23, .T. ) ;
#39 = DIRECTION ( 'NONE',  ( -0.000000000000000000, -0.000000000000000000, -1.000000000000000000 ) ) ;
#40 = PERSON_AND_ORGANIZATION ( #28, #120 ) ;
#41 = CALENDAR_DATE ( 2022, 1, 3 ) ;
#42 = FACE_OUTER_BOUND ( 'NONE', #128, .T. ) ;
#43 = CARTESIAN_POINT ( 'NONE',  ( 2.500000000000000000, 3.061616997868383141E-16, 0.1000000000000000056 ) ) ;
#44 = DIRECTION ( 'NONE',  ( 1.000000000000000000, 0.000000000000000000, 0.000000000000000000 ) ) ;
#45 = LINE ( 'NONE', #43, #92 ) ;
#46 = EDGE_CURVE ( 'NONE', #73, #8, #2, .T. ) ;
#47 = APPROVAL_STATUS ( 'not_yet_approved' ) ;
#48 = DIRECTION ( 'NONE',  ( 0.000000000000000000, 0.000000000000000000, 1.000000000000000000 ) ) ;
#49 = CC_DESIGN_PERSON_AND_ORGANIZATION_ASSIGNMENT ( #52, #116, ( #148 ) ) ;
#50 = COORDINATED_UNIVERSAL_TIME_OFFSET ( 5, 0, .BEHIND. ) ;
#51 = LOCAL_TIME ( 10, 52, 37.00000000000000000, #64 ) ;
#52 = PERSON_AND_ORGANIZATION ( #28, #120 ) ;
#53 = DIRECTION ( 'NONE',  ( 1.000000000000000000, 0.000000000000000000, -0.000000000000000000 ) ) ;
#54 = MANIFOLD_SOLID_BREP ( 'Boss-Extrude1', #141 ) ;
#55 = APPROVAL ( #47, 'UNSPECIFIED' ) ;
#56 = CARTESIAN_POINT ( 'NONE',  ( -2.500000000000000000, 0.000000000000000000, 0.000000000000000000 ) ) ;
#57 = EDGE_LOOP ( 'NONE', ( #12, #20, #152, #58 ) ) ;
#58 = ORIENTED_EDGE ( 'NONE', *, *, #111, .F. ) ;
#59 = DIRECTION ( 'NONE',  ( 0.000000000000000000, 0.000000000000000000, 1.000000000000000000 ) ) ;
#60 = PERSON_AND_ORGANIZATION ( #28, #120 ) ;
#61 = APPLICATION_PROTOCOL_DEFINITION ( 'international standard', 'config_control_design', 1994, #151 ) ;
#62 = AXIS2_PLACEMENT_3D ( 'NONE', #167, #71, #44 ) ;
#63 = PERSON_AND_ORGANIZATION ( #28, #120 ) ;
#64 = COORDINATED_UNIVERSAL_TIME_OFFSET ( 5, 0, .BEHIND. ) ;
#65 = UNCERTAINTY_MEASURE_WITH_UNIT (LENGTH_MEASURE( 1.000000000000000082E-05 ), #173, 'distance_accuracy_value', 'NONE');
#66 = DIRECTION ( 'NONE',  ( 1.000000000000000000, 0.000000000000000000, 0.000000000000000000 ) ) ;
#67 = APPROVAL_DATE_TIME ( #140, #85 ) ;
#68 = ADVANCED_FACE ( 'NONE', ( #150 ), #26, .T. ) ;
#69 = ADVANCED_FACE ( 'NONE', ( #42 ), #139, .T. ) ;
#70 = COORDINATED_UNIVERSAL_TIME_OFFSET ( 5, 0, .BEHIND. ) ;
#71 = DIRECTION ( 'NONE',  ( 0.000000000000000000, 0.000000000000000000, 1.000000000000000000 ) ) ;
#72 = ORIENTED_EDGE ( 'NONE', *, *, #46, .F. ) ;
#73 = VERTEX_POINT ( 'NONE', #9 ) ;
#74 = APPROVAL_PERSON_ORGANIZATION ( #130, #55, #171 ) ;
#75 = CARTESIAN_POINT ( 'NONE',  ( 0.000000000000000000, 0.000000000000000000, 0.1000000000000000056 ) ) ;
#76 = APPROVAL_DATE_TIME ( #33, #55 ) ;
#77 = AXIS2_PLACEMENT_3D ( 'NONE', #87, #157, #103 ) ;
#78 = PERSON_AND_ORGANIZATION ( #28, #120 ) ;
#79 = PERSON_AND_ORGANIZATION_ROLE ( 'creator' ) ;
#80 = APPROVAL ( #88, 'UNSPECIFIED' ) ;
#81 = LOCAL_TIME ( 10, 52, 37.00000000000000000, #7 ) ;
#82 = DIRECTION ( 'NONE',  ( 0.000000000000000000, 0.000000000000000000, 1.000000000000000000 ) ) ;
#83 = DIRECTION ( 'NONE',  ( -0.000000000000000000, -0.000000000000000000, -1.000000000000000000 ) ) ;
#84 = LOCAL_TIME ( 10, 52, 37.00000000000000000, #70 ) ;
#85 = APPROVAL ( #164, 'UNSPECIFIED' ) ;
#86 = ORIENTED_EDGE ( 'NONE', *, *, #111, .T. ) ;
#87 = CARTESIAN_POINT ( 'NONE',  ( 0.000000000000000000, 0.000000000000000000, 0.1000000000000000056 ) ) ;
#88 = APPROVAL_STATUS ( 'not_yet_approved' ) ;
#89 = CARTESIAN_POINT ( 'NONE',  ( 2.500000000000000000, 3.061616997868383141E-16, 0.1000000000000000056 ) ) ;
#90 = PERSON_AND_ORGANIZATION_ROLE ( 'design_owner' ) ;
#91 = CALENDAR_DATE ( 2022, 1, 3 ) ;
#92 = VECTOR ( 'NONE', #97, 1000.000000000000000 ) ;
#93 = DATE_TIME_ROLE ( 'classification_date' ) ;
#94 = AXIS2_PLACEMENT_3D ( 'NONE', #134, #101, #66 ) ;
#95 = LOCAL_TIME ( 10, 52, 37.00000000000000000, #50 ) ;
#96 = DIRECTION ( 'NONE',  ( 0.000000000000000000, 0.000000000000000000, 1.000000000000000000 ) ) ;
#97 = DIRECTION ( 'NONE',  ( -0.000000000000000000, -0.000000000000000000, -1.000000000000000000 ) ) ;
#98 = ADVANCED_FACE ( 'NONE', ( #119 ), #30, .T. ) ;
#99 = DIRECTION ( 'NONE',  ( 1.000000000000000000, 0.000000000000000000, 0.000000000000000000 ) ) ;
#100 = CARTESIAN_POINT ( 'NONE',  ( 0.000000000000000000, 0.000000000000000000, 0.000000000000000000 ) ) ;
#101 = DIRECTION ( 'NONE',  ( 0.000000000000000000, 0.000000000000000000, 1.000000000000000000 ) ) ;
#102 = MECHANICAL_CONTEXT ( 'NONE', #151, 'mechanical' ) ;
#103 = DIRECTION ( 'NONE',  ( -1.000000000000000000, 0.000000000000000000, 0.000000000000000000 ) ) ;
#104 = DIRECTION ( 'NONE',  ( 1.000000000000000000, 0.000000000000000000, 0.000000000000000000 ) ) ;
#105 = DESIGN_CONTEXT ( 'detailed design', #170, 'design' ) ;
#106 = CC_DESIGN_APPROVAL ( #80, ( #148 ) ) ;
#107 = AXIS2_PLACEMENT_3D ( 'NONE', #75, #83, #163 ) ;
#108 = PERSON_AND_ORGANIZATION ( #28, #120 ) ;
#109 = CIRCLE ( 'NONE', #62, 2.500000000000000000 ) ;
#110 = EDGE_LOOP ( 'NONE', ( #112, #166, #86, #113 ) ) ;
#111 = EDGE_CURVE ( 'NONE', #165, #8, #175, .T. ) ;
#112 = ORIENTED_EDGE ( 'NONE', *, *, #32, .F. ) ;
#113 = ORIENTED_EDGE ( 'NONE', *, *, #18, .T. ) ;
#114 = CIRCLE ( 'NONE', #131, 2.500000000000000000 ) ;
#115 = PERSON_AND_ORGANIZATION_ROLE ( 'design_supplier' ) ;
#116 = PERSON_AND_ORGANIZATION_ROLE ( 'creator' ) ;
#117 = CALENDAR_DATE ( 2022, 1, 3 ) ;
#118 = COORDINATED_UNIVERSAL_TIME_OFFSET ( 5, 0, .BEHIND. ) ;
#119 = FACE_OUTER_BOUND ( 'NONE', #57, .T. ) ;
#120 = ORGANIZATION ( 'UNSPECIFIED', 'UNSPECIFIED', '' ) ;
#121 = PERSON_AND_ORGANIZATION_ROLE ( 'classification_officer' ) ;
#122 = SECURITY_CLASSIFICATION_LEVEL ( 'unclassified' ) ;
#123 = CARTESIAN_POINT ( 'NONE',  ( 0.000000000000000000, 0.000000000000000000, 0.000000000000000000 ) ) ;
#124 = EDGE_CURVE ( 'NONE', #126, #165, #114, .T. ) ;
#125 = DIRECTION ( 'NONE',  ( 1.000000000000000000, 0.000000000000000000, -0.000000000000000000 ) ) ;
#126 = VERTEX_POINT ( 'NONE', #89 ) ;
#127 = APPROVAL_PERSON_ORGANIZATION ( #108, #85, #159 ) ;
#128 = EDGE_LOOP ( 'NONE', ( #153, #142 ) ) ;
#129 = CC_DESIGN_DATE_AND_TIME_ASSIGNMENT ( #34, #1, ( #148 ) ) ;
#130 = PERSON_AND_ORGANIZATION ( #28, #120 ) ;
#131 = AXIS2_PLACEMENT_3D ( 'NONE', #135, #48, #104 ) ;
#132 = CC_DESIGN_DATE_AND_TIME_ASSIGNMENT ( #137, #93, ( #25 ) ) ;
#133 = PRODUCT_DEFINITION_SHAPE ( 'NONE', 'NONE',  #148 ) ;
#134 = CARTESIAN_POINT ( 'NONE',  ( 0.000000000000000000, 0.000000000000000000, 0.000000000000000000 ) ) ;
#135 = CARTESIAN_POINT ( 'NONE',  ( 0.000000000000000000, 0.000000000000000000, 0.1000000000000000056 ) ) ;
#136 = CC_DESIGN_PERSON_AND_ORGANIZATION_ASSIGNMENT ( #60, #115, ( #36 ) ) ;
#137 = DATE_AND_TIME ( #19, #81 ) ;
#138 = PERSON_AND_ORGANIZATION ( #28, #120 ) ;
#139 = PLANE ( 'NONE',  #6 ) ;
#140 = DATE_AND_TIME ( #41, #84 ) ;
#141 = CLOSED_SHELL ( 'NONE', ( #98, #68, #69, #27 ) ) ;
#142 = ORIENTED_EDGE ( 'NONE', *, *, #124, .T. ) ;
#143 = DIRECTION ( 'NONE',  ( 0.000000000000000000, 0.000000000000000000, 1.000000000000000000 ) ) ;
#144 =( NAMED_UNIT ( * ) SI_UNIT ( $, .STERADIAN. ) SOLID_ANGLE_UNIT ( ) );
#145 = CALENDAR_DATE ( 2022, 1, 3 ) ;
#146 =( GEOMETRIC_REPRESENTATION_CONTEXT ( 3 ) GLOBAL_UNCERTAINTY_ASSIGNED_CONTEXT ( ( #65 ) ) GLOBAL_UNIT_ASSIGNED_CONTEXT ( ( #173, #156, #144 ) ) REPRESENTATION_CONTEXT ( 'NONE', 'WORKASPACE' ) );
#147 = DATE_AND_TIME ( #117, #51 ) ;
#148 = PRODUCT_DEFINITION ( 'UNKNOWN', '', #36, #105 ) ;
#149 = LOCAL_TIME ( 10, 52, 37.00000000000000000, #118 ) ;
#150 = FACE_OUTER_BOUND ( 'NONE', #110, .T. ) ;
#151 = APPLICATION_CONTEXT ( 'configuration controlled 3d designs of mechanical parts and assemblies' ) ;
#152 = ORIENTED_EDGE ( 'NONE', *, *, #46, .T. ) ;
#153 = ORIENTED_EDGE ( 'NONE', *, *, #4, .T. ) ;
#154 = AXIS2_PLACEMENT_3D ( 'NONE', #100, #143, #37 ) ;
#155 = CARTESIAN_POINT ( 'NONE',  ( -2.500000000000000000, 0.000000000000000000, 0.1000000000000000056 ) ) ;
#156 =( NAMED_UNIT ( * ) PLANE_ANGLE_UNIT ( ) SI_UNIT ( $, .RADIAN. ) );
#157 = DIRECTION ( 'NONE',  ( -0.000000000000000000, -0.000000000000000000, -1.000000000000000000 ) ) ;
#158 = APPROVAL_DATE_TIME ( #147, #80 ) ;
#159 = APPROVAL_ROLE ( '' ) ;
#160 = CC_DESIGN_SECURITY_CLASSIFICATION ( #25, ( #36 ) ) ;
#161 = PRODUCT_RELATED_PRODUCT_CATEGORY ( 'detail', '', ( #31 ) ) ;
#162 = CC_DESIGN_PERSON_AND_ORGANIZATION_ASSIGNMENT ( #78, #79, ( #36 ) ) ;
#163 = DIRECTION ( 'NONE',  ( -1.000000000000000000, 0.000000000000000000, 0.000000000000000000 ) ) ;
#164 = APPROVAL_STATUS ( 'not_yet_approved' ) ;
#165 = VERTEX_POINT ( 'NONE', #155 ) ;
#166 = ORIENTED_EDGE ( 'NONE', *, *, #4, .F. ) ;
#167 = CARTESIAN_POINT ( 'NONE',  ( 0.000000000000000000, 0.000000000000000000, 0.1000000000000000056 ) ) ;
#168 = CC_DESIGN_PERSON_AND_ORGANIZATION_ASSIGNMENT ( #40, #90, ( #31 ) ) ;
#169 = CARTESIAN_POINT ( 'NONE',  ( 0.000000000000000000, 0.000000000000000000, 0.000000000000000000 ) ) ;
#170 = APPLICATION_CONTEXT ( 'configuration controlled 3d designs of mechanical parts and assemblies' ) ;
#171 = APPROVAL_ROLE ( '' ) ;
#172 = AXIS2_PLACEMENT_3D ( 'NONE', #169, #59, #99 ) ;
#173 =( LENGTH_UNIT ( ) NAMED_UNIT ( * ) SI_UNIT ( .MILLI., .METRE. ) );
#174 = ADVANCED_BREP_SHAPE_REPRESENTATION ( 'Web Model 20207_20207', ( #54, #94 ), #146 ) ;
#175 = LINE ( 'NONE', #13, #5 ) ;
ENDSEC;
END-ISO-10303-21;
