ISO-10303-21;
HEADER;
FILE_DESCRIPTION (( 'STEP AP203' ),
    '1' );
FILE_NAME ('Web Model 13402_13405.step',
    '2021-06-30T20:44:30',
    ( '' ),
    ( '' ),
    'SwSTEP 2.0',
    'SolidWorks 2018',
    '' );
FILE_SCHEMA (( 'CONFIG_CONTROL_DESIGN' ));
ENDSEC;

DATA;
#1 = CARTESIAN_POINT ( 'NONE',  ( -12.49999999999999645, -12.50000000000000000, 3.000000000000000000 ) ) ;
#2 = CARTESIAN_POINT ( 'NONE',  ( 12.50000000000000000, 12.50000000000000000, 3.000000000000000000 ) ) ;
#3 = PERSON_AND_ORGANIZATION_ROLE ( 'design_owner' ) ;
#4 = ORIENTED_EDGE ( 'NONE', *, *, #97, .T. ) ;
#5 = CARTESIAN_POINT ( 'NONE',  ( -12.50000000000000000, 12.50000000000000000, 3.000000000000000000 ) ) ;
#6 = CARTESIAN_POINT ( 'NONE',  ( -12.50000000000000000, 12.50000000000000000, 0.000000000000000000 ) ) ;
#7 = EDGE_CURVE ( 'NONE', #224, #89, #216, .T. ) ;
#8 = LOCAL_TIME ( 16, 44, 30.00000000000000000, #52 ) ;
#9 = VERTEX_POINT ( 'NONE', #58 ) ;
#10 = EDGE_LOOP ( 'NONE', ( #86, #231, #126, #46 ) ) ;
#11 = PERSON_AND_ORGANIZATION ( #191, #168 ) ;
#12 = FACE_OUTER_BOUND ( 'NONE', #112, .T. ) ;
#13 = PERSON_AND_ORGANIZATION ( #191, #168 ) ;
#14 = APPROVAL ( #19, 'UNSPECIFIED' ) ;
#15 = EDGE_CURVE ( 'NONE', #65, #224, #26, .T. ) ;
#16 = DIRECTION ( 'NONE',  ( -0.000000000000000000, 0.000000000000000000, 1.000000000000000000 ) ) ;
#17 = DIRECTION ( 'NONE',  ( -0.000000000000000000, -0.000000000000000000, -1.000000000000000000 ) ) ;
#18 = DIRECTION ( 'NONE',  ( 0.000000000000000000, -0.000000000000000000, 1.000000000000000000 ) ) ;
#19 = APPROVAL_STATUS ( 'not_yet_approved' ) ;
#20 = DIRECTION ( 'NONE',  ( 0.000000000000000000, 0.000000000000000000, 1.000000000000000000 ) ) ;
#21 = VECTOR ( 'NONE', #158, 1000.000000000000000 ) ;
#22 = LINE ( 'NONE', #186, #212 ) ;
#23 = CARTESIAN_POINT ( 'NONE',  ( 0.000000000000000000, 0.000000000000000000, 0.000000000000000000 ) ) ;
#24 = VECTOR ( 'NONE', #129, 1000.000000000000000 ) ;
#25 = FACE_OUTER_BOUND ( 'NONE', #59, .T. ) ;
#26 = LINE ( 'NONE', #220, #124 ) ;
#27 = EDGE_CURVE ( 'NONE', #65, #9, #22, .T. ) ;
#28 = PRODUCT_RELATED_PRODUCT_CATEGORY ( 'detail', '', ( #178 ) ) ;
#29 = APPROVAL_PERSON_ORGANIZATION ( #76, #14, #133 ) ;
#30 = EDGE_LOOP ( 'NONE', ( #4, #207, #143, #101 ) ) ;
#31 = EDGE_CURVE ( 'NONE', #9, #89, #49, .T. ) ;
#32 = AXIS2_PLACEMENT_3D ( 'NONE', #5, #192, #81 ) ;
#33 = ORIENTED_EDGE ( 'NONE', *, *, #34, .F. ) ;
#34 = EDGE_CURVE ( 'NONE', #93, #197, #214, .T. ) ;
#35 = CARTESIAN_POINT ( 'NONE',  ( 12.50000000000000355, -12.50000000000000000, 0.000000000000000000 ) ) ;
#36 = LOCAL_TIME ( 16, 44, 30.00000000000000000, #91 ) ;
#37 = LINE ( 'NONE', #77, #118 ) ;
#38 = DIRECTION ( 'NONE',  ( -0.000000000000000000, -0.000000000000000000, -1.000000000000000000 ) ) ;
#39 = SECURITY_CLASSIFICATION_LEVEL ( 'unclassified' ) ;
#40 = CARTESIAN_POINT ( 'NONE',  ( -12.50000000000000000, 12.50000000000000000, 0.000000000000000000 ) ) ;
#41 =( LENGTH_UNIT ( ) NAMED_UNIT ( * ) SI_UNIT ( .MILLI., .METRE. ) );
#42 = CC_DESIGN_PERSON_AND_ORGANIZATION_ASSIGNMENT ( #142, #3, ( #178 ) ) ;
#43 = DIRECTION ( 'NONE',  ( -0.000000000000000000, 0.000000000000000000, 1.000000000000000000 ) ) ;
#44 = ORIENTED_EDGE ( 'NONE', *, *, #31, .T. ) ;
#45 = ORIENTED_EDGE ( 'NONE', *, *, #70, .T. ) ;
#46 = ORIENTED_EDGE ( 'NONE', *, *, #209, .F. ) ;
#47 = PERSON_AND_ORGANIZATION ( #191, #168 ) ;
#48 = AXIS2_PLACEMENT_3D ( 'NONE', #167, #16, #75 ) ;
#49 = LINE ( 'NONE', #96, #68 ) ;
#50 = ORIENTED_EDGE ( 'NONE', *, *, #234, .F. ) ;
#51 = ADVANCED_FACE ( 'NONE', ( #206 ), #94, .F. ) ;
#52 = COORDINATED_UNIVERSAL_TIME_OFFSET ( 5, 0, .BEHIND. ) ;
#53 = ADVANCED_FACE ( 'NONE', ( #12 ), #151, .T. ) ;
#54 = ORIENTED_EDGE ( 'NONE', *, *, #87, .T. ) ;
#55 = AXIS2_PLACEMENT_3D ( 'NONE', #171, #20, #135 ) ;
#56 = EDGE_CURVE ( 'NONE', #79, #93, #92, .T. ) ;
#57 = DIRECTION ( 'NONE',  ( -1.000000000000000000, -0.000000000000000000, -0.000000000000000000 ) ) ;
#58 = CARTESIAN_POINT ( 'NONE',  ( 12.50000000000000355, -12.50000000000000000, 3.000000000000000000 ) ) ;
#59 = EDGE_LOOP ( 'NONE', ( #74, #179, #150, #104 ) ) ;
#60 = CC_DESIGN_PERSON_AND_ORGANIZATION_ASSIGNMENT ( #11, #98, ( #123 ) ) ;
#61 = DATE_TIME_ROLE ( 'classification_date' ) ;
#62 = DIRECTION ( 'NONE',  ( -0.000000000000000000, -0.000000000000000000, -1.000000000000000000 ) ) ;
#63 = PERSON_AND_ORGANIZATION_ROLE ( 'design_supplier' ) ;
#64 = PLANE ( 'NONE',  #105 ) ;
#65 = VERTEX_POINT ( 'NONE', #78 ) ;
#66 =( GEOMETRIC_REPRESENTATION_CONTEXT ( 3 ) GLOBAL_UNCERTAINTY_ASSIGNED_CONTEXT ( ( #88 ) ) GLOBAL_UNIT_ASSIGNED_CONTEXT ( ( #41, #99, #227 ) ) REPRESENTATION_CONTEXT ( 'NONE', 'WORKASPACE' ) );
#67 = APPROVAL_PERSON_ORGANIZATION ( #218, #103, #154 ) ;
#68 = VECTOR ( 'NONE', #237, 1000.000000000000000 ) ;
#69 = CC_DESIGN_APPROVAL ( #170, ( #235 ) ) ;
#70 = EDGE_CURVE ( 'NONE', #93, #65, #37, .T. ) ;
#71 = VECTOR ( 'NONE', #38, 1000.000000000000000 ) ;
#72 = DATE_AND_TIME ( #122, #159 ) ;
#73 = CC_DESIGN_DATE_AND_TIME_ASSIGNMENT ( #183, #61, ( #235 ) ) ;
#74 = ORIENTED_EDGE ( 'NONE', *, *, #7, .T. ) ;
#75 = DIRECTION ( 'NONE',  ( 1.000000000000000000, 0.000000000000000000, 0.000000000000000000 ) ) ;
#76 = PERSON_AND_ORGANIZATION ( #191, #168 ) ;
#77 = CARTESIAN_POINT ( 'NONE',  ( -12.50000000000000000, 12.50000000000000000, 3.000000000000000000 ) ) ;
#78 = CARTESIAN_POINT ( 'NONE',  ( -12.49999999999999645, -12.50000000000000000, 3.000000000000000000 ) ) ;
#79 = VERTEX_POINT ( 'NONE', #187 ) ;
#80 = DIRECTION ( 'NONE',  ( 1.387778780781445429E-16, -1.000000000000000000, 0.000000000000000000 ) ) ;
#81 = DIRECTION ( 'NONE',  ( -1.387778780781445429E-16, 1.000000000000000000, 0.000000000000000000 ) ) ;
#82 = DIRECTION ( 'NONE',  ( -1.387778780781445676E-16, 1.000000000000000000, -0.000000000000000000 ) ) ;
#83 = EDGE_LOOP ( 'NONE', ( #233, #33, #107, #54 ) ) ;
#84 = AXIS2_PLACEMENT_3D ( 'NONE', #225, #128, #127 ) ;
#85 = APPROVAL_PERSON_ORGANIZATION ( #90, #170, #115 ) ;
#86 = ORIENTED_EDGE ( 'NONE', *, *, #177, .F. ) ;
#87 = EDGE_CURVE ( 'NONE', #79, #193, #205, .T. ) ;
#88 = UNCERTAINTY_MEASURE_WITH_UNIT (LENGTH_MEASURE( 1.000000000000000082E-05 ), #41, 'distance_accuracy_value', 'NONE');
#89 = VERTEX_POINT ( 'NONE', #35 ) ;
#90 = PERSON_AND_ORGANIZATION ( #191, #168 ) ;
#91 = COORDINATED_UNIVERSAL_TIME_OFFSET ( 5, 0, .BEHIND. ) ;
#92 = LINE ( 'NONE', #146, #156 ) ;
#93 = VERTEX_POINT ( 'NONE', #189 ) ;
#94 = PLANE ( 'NONE',  #84 ) ;
#95 = LINE ( 'NONE', #230, #21 ) ;
#96 = CARTESIAN_POINT ( 'NONE',  ( 12.50000000000000355, -12.50000000000000000, 3.000000000000000000 ) ) ;
#97 = EDGE_CURVE ( 'NONE', #197, #224, #232, .T. ) ;
#98 = PERSON_AND_ORGANIZATION_ROLE ( 'creator' ) ;
#99 =( NAMED_UNIT ( * ) PLANE_ANGLE_UNIT ( ) SI_UNIT ( $, .RADIAN. ) );
#100 = APPLICATION_CONTEXT ( 'configuration controlled 3d designs of mechanical parts and assemblies' ) ;
#101 = ORIENTED_EDGE ( 'NONE', *, *, #34, .T. ) ;
#102 = DIRECTION ( 'NONE',  ( -1.000000000000000000, -0.000000000000000000, -0.000000000000000000 ) ) ;
#103 = APPROVAL ( #166, 'UNSPECIFIED' ) ;
#104 = ORIENTED_EDGE ( 'NONE', *, *, #15, .T. ) ;
#105 = AXIS2_PLACEMENT_3D ( 'NONE', #23, #43, #117 ) ;
#106 = CALENDAR_DATE ( 2021, 30, 6 ) ;
#107 = ORIENTED_EDGE ( 'NONE', *, *, #56, .F. ) ;
#108 = CC_DESIGN_APPROVAL ( #103, ( #176 ) ) ;
#109 = DATE_AND_TIME ( #106, #113 ) ;
#110 = CC_DESIGN_PERSON_AND_ORGANIZATION_ASSIGNMENT ( #13, #63, ( #176 ) ) ;
#111 = CALENDAR_DATE ( 2021, 30, 6 ) ;
#112 = EDGE_LOOP ( 'NONE', ( #136, #145, #45, #195 ) ) ;
#113 = LOCAL_TIME ( 16, 44, 30.00000000000000000, #173 ) ;
#114 = DIRECTION ( 'NONE',  ( 1.387778780781445676E-16, -1.000000000000000000, 0.000000000000000000 ) ) ;
#115 = APPROVAL_ROLE ( '' ) ;
#116 = CARTESIAN_POINT ( 'NONE',  ( -12.50000000000000000, 12.50000000000000000, 0.000000000000000000 ) ) ;
#117 = DIRECTION ( 'NONE',  ( 1.000000000000000000, 0.000000000000000000, 0.000000000000000000 ) ) ;
#118 = VECTOR ( 'NONE', #114, 1000.000000000000000 ) ;
#119 = APPLICATION_PROTOCOL_DEFINITION ( 'international standard', 'config_control_design', 1994, #100 ) ;
#120 = SHAPE_DEFINITION_REPRESENTATION ( #198, #172 ) ;
#121 = FACE_OUTER_BOUND ( 'NONE', #10, .T. ) ;
#122 = CALENDAR_DATE ( 2021, 30, 6 ) ;
#123 = PRODUCT_DEFINITION ( 'UNKNOWN', '', #176, #229 ) ;
#124 = VECTOR ( 'NONE', #62, 1000.000000000000000 ) ;
#125 = PERSON_AND_ORGANIZATION ( #191, #168 ) ;
#126 = ORIENTED_EDGE ( 'NONE', *, *, #97, .F. ) ;
#127 = DIRECTION ( 'NONE',  ( 0.000000000000000000, -0.000000000000000000, -1.000000000000000000 ) ) ;
#128 = DIRECTION ( 'NONE',  ( 0.000000000000000000, -1.000000000000000000, 0.000000000000000000 ) ) ;
#129 = DIRECTION ( 'NONE',  ( 1.387778780781445676E-16, -1.000000000000000000, 0.000000000000000000 ) ) ;
#130 = PERSON_AND_ORGANIZATION_ROLE ( 'classification_officer' ) ;
#131 = DIRECTION ( 'NONE',  ( 0.000000000000000000, 1.000000000000000000, 0.000000000000000000 ) ) ;
#132 = DATE_AND_TIME ( #181, #36 ) ;
#133 = APPROVAL_ROLE ( '' ) ;
#134 = CARTESIAN_POINT ( 'NONE',  ( 12.50000000000000000, 12.50000000000000000, 3.000000000000000000 ) ) ;
#135 = DIRECTION ( 'NONE',  ( 1.000000000000000000, 0.000000000000000000, 0.000000000000000000 ) ) ;
#136 = ORIENTED_EDGE ( 'NONE', *, *, #234, .T. ) ;
#137 = DATE_AND_TIME ( #111, #8 ) ;
#138 = AXIS2_PLACEMENT_3D ( 'NONE', #134, #190, #80 ) ;
#139 = LINE ( 'NONE', #40, #165 ) ;
#140 = CLOSED_SHELL ( 'NONE', ( #215, #51, #202, #162, #53, #182 ) ) ;
#141 = CC_DESIGN_DATE_AND_TIME_ASSIGNMENT ( #72, #153, ( #123 ) ) ;
#142 = PERSON_AND_ORGANIZATION ( #191, #168 ) ;
#143 = ORIENTED_EDGE ( 'NONE', *, *, #70, .F. ) ;
#144 = MANIFOLD_SOLID_BREP ( 'Boss-Extrude1', #140 ) ;
#145 = ORIENTED_EDGE ( 'NONE', *, *, #56, .T. ) ;
#146 = CARTESIAN_POINT ( 'NONE',  ( -12.50000000000000000, 12.50000000000000000, 3.000000000000000000 ) ) ;
#147 = COORDINATED_UNIVERSAL_TIME_OFFSET ( 5, 0, .BEHIND. ) ;
#148 = CARTESIAN_POINT ( 'NONE',  ( 12.50000000000000000, 12.50000000000000000, 3.000000000000000000 ) ) ;
#149 = APPLICATION_CONTEXT ( 'configuration controlled 3d designs of mechanical parts and assemblies' ) ;
#150 = ORIENTED_EDGE ( 'NONE', *, *, #27, .F. ) ;
#151 = PLANE ( 'NONE',  #48 ) ;
#152 = CALENDAR_DATE ( 2021, 30, 6 ) ;
#153 = DATE_TIME_ROLE ( 'creation_date' ) ;
#154 = APPROVAL_ROLE ( '' ) ;
#155 = PLANE ( 'NONE',  #32 ) ;
#156 = VECTOR ( 'NONE', #57, 1000.000000000000000 ) ;
#157 = APPROVAL_STATUS ( 'not_yet_approved' ) ;
#158 = DIRECTION ( 'NONE',  ( -1.387778780781445676E-16, 1.000000000000000000, -0.000000000000000000 ) ) ;
#159 = LOCAL_TIME ( 16, 44, 30.00000000000000000, #203 ) ;
#160 = LOCAL_TIME ( 16, 44, 30.00000000000000000, #147 ) ;
#161 = LINE ( 'NONE', #2, #211 ) ;
#162 = ADVANCED_FACE ( 'NONE', ( #25 ), #222, .F. ) ;
#163 = APPROVAL_DATE_TIME ( #137, #103 ) ;
#164 = CARTESIAN_POINT ( 'NONE',  ( -12.49999999999999645, -12.50000000000000000, 0.000000000000000000 ) ) ;
#165 = VECTOR ( 'NONE', #102, 1000.000000000000000 ) ;
#166 = APPROVAL_STATUS ( 'not_yet_approved' ) ;
#167 = CARTESIAN_POINT ( 'NONE',  ( 0.000000000000000000, 0.000000000000000000, 3.000000000000000000 ) ) ;
#168 = ORGANIZATION ( 'UNSPECIFIED', 'UNSPECIFIED', '' ) ;
#169 = VECTOR ( 'NONE', #219, 1000.000000000000000 ) ;
#170 = APPROVAL ( #157, 'UNSPECIFIED' ) ;
#171 = CARTESIAN_POINT ( 'NONE',  ( 0.000000000000000000, 0.000000000000000000, 0.000000000000000000 ) ) ;
#172 = ADVANCED_BREP_SHAPE_REPRESENTATION ( 'Web Model 13402_13405', ( #144, #55 ), #66 ) ;
#173 = COORDINATED_UNIVERSAL_TIME_OFFSET ( 5, 0, .BEHIND. ) ;
#174 = CARTESIAN_POINT ( 'NONE',  ( 12.50000000000000000, 12.50000000000000000, 0.000000000000000000 ) ) ;
#175 = VECTOR ( 'NONE', #17, 1000.000000000000000 ) ;
#176 = PRODUCT_DEFINITION_FORMATION_WITH_SPECIFIED_SOURCE ( 'ANY', '', #178, .NOT_KNOWN. ) ;
#177 = EDGE_CURVE ( 'NONE', #89, #193, #95, .T. ) ;
#178 = PRODUCT ( 'Web Model 13402_13405', 'Web Model 13402_13405', '', ( #228 ) ) ;
#179 = ORIENTED_EDGE ( 'NONE', *, *, #31, .F. ) ;
#180 = CC_DESIGN_PERSON_AND_ORGANIZATION_ASSIGNMENT ( #125, #130, ( #235 ) ) ;
#181 = CALENDAR_DATE ( 2021, 30, 6 ) ;
#182 = ADVANCED_FACE ( 'NONE', ( #121 ), #64, .F. ) ;
#183 = DATE_AND_TIME ( #152, #160 ) ;
#184 = FACE_OUTER_BOUND ( 'NONE', #30, .T. ) ;
#185 = EDGE_LOOP ( 'NONE', ( #201, #236, #50, #44 ) ) ;
#186 = CARTESIAN_POINT ( 'NONE',  ( -12.49999999999999645, -12.50000000000000000, 3.000000000000000000 ) ) ;
#187 = CARTESIAN_POINT ( 'NONE',  ( 12.50000000000000000, 12.50000000000000000, 3.000000000000000000 ) ) ;
#188 = DIRECTION ( 'NONE',  ( 1.000000000000000000, 0.000000000000000000, 0.000000000000000000 ) ) ;
#189 = CARTESIAN_POINT ( 'NONE',  ( -12.50000000000000000, 12.50000000000000000, 3.000000000000000000 ) ) ;
#190 = DIRECTION ( 'NONE',  ( -1.000000000000000000, -1.387778780781445429E-16, 0.000000000000000000 ) ) ;
#191 = PERSON ( 'UNSPECIFIED', 'UNSPECIFIED', 'UNSPECIFIED', ('UNSPECIFIED'), ('UNSPECIFIED'), ('UNSPECIFIED') ) ;
#192 = DIRECTION ( 'NONE',  ( 1.000000000000000000, 1.387778780781445429E-16, -0.000000000000000000 ) ) ;
#193 = VERTEX_POINT ( 'NONE', #174 ) ;
#194 = PLANE ( 'NONE',  #138 ) ;
#195 = ORIENTED_EDGE ( 'NONE', *, *, #27, .T. ) ;
#196 = CC_DESIGN_SECURITY_CLASSIFICATION ( #235, ( #176 ) ) ;
#197 = VERTEX_POINT ( 'NONE', #6 ) ;
#198 = PRODUCT_DEFINITION_SHAPE ( 'NONE', 'NONE',  #123 ) ;
#199 = APPROVAL_DATE_TIME ( #109, #170 ) ;
#200 = CC_DESIGN_PERSON_AND_ORGANIZATION_ASSIGNMENT ( #47, #226, ( #176 ) ) ;
#201 = ORIENTED_EDGE ( 'NONE', *, *, #177, .T. ) ;
#202 = ADVANCED_FACE ( 'NONE', ( #184 ), #155, .F. ) ;
#203 = COORDINATED_UNIVERSAL_TIME_OFFSET ( 5, 0, .BEHIND. ) ;
#204 = CARTESIAN_POINT ( 'NONE',  ( -12.50000000000000000, 12.50000000000000000, 3.000000000000000000 ) ) ;
#205 = LINE ( 'NONE', #148, #175 ) ;
#206 = FACE_OUTER_BOUND ( 'NONE', #83, .T. ) ;
#207 = ORIENTED_EDGE ( 'NONE', *, *, #15, .F. ) ;
#208 = CARTESIAN_POINT ( 'NONE',  ( -12.49999999999999645, -12.50000000000000000, 0.000000000000000000 ) ) ;
#209 = EDGE_CURVE ( 'NONE', #193, #197, #139, .T. ) ;
#210 = FACE_OUTER_BOUND ( 'NONE', #185, .T. ) ;
#211 = VECTOR ( 'NONE', #82, 1000.000000000000000 ) ;
#212 = VECTOR ( 'NONE', #188, 1000.000000000000000 ) ;
#213 = APPROVAL_DATE_TIME ( #132, #14 ) ;
#214 = LINE ( 'NONE', #204, #71 ) ;
#215 = ADVANCED_FACE ( 'NONE', ( #210 ), #194, .F. ) ;
#216 = LINE ( 'NONE', #164, #169 ) ;
#217 = CC_DESIGN_APPROVAL ( #14, ( #123 ) ) ;
#218 = PERSON_AND_ORGANIZATION ( #191, #168 ) ;
#219 = DIRECTION ( 'NONE',  ( 1.000000000000000000, 0.000000000000000000, 0.000000000000000000 ) ) ;
#220 = CARTESIAN_POINT ( 'NONE',  ( -12.49999999999999645, -12.50000000000000000, 3.000000000000000000 ) ) ;
#221 = APPLICATION_PROTOCOL_DEFINITION ( 'international standard', 'config_control_design', 1994, #149 ) ;
#222 = PLANE ( 'NONE',  #223 ) ;
#223 = AXIS2_PLACEMENT_3D ( 'NONE', #1, #131, #18 ) ;
#224 = VERTEX_POINT ( 'NONE', #208 ) ;
#225 = CARTESIAN_POINT ( 'NONE',  ( -12.50000000000000000, 12.50000000000000000, 3.000000000000000000 ) ) ;
#226 = PERSON_AND_ORGANIZATION_ROLE ( 'creator' ) ;
#227 =( NAMED_UNIT ( * ) SI_UNIT ( $, .STERADIAN. ) SOLID_ANGLE_UNIT ( ) );
#228 = MECHANICAL_CONTEXT ( 'NONE', #100, 'mechanical' ) ;
#229 = DESIGN_CONTEXT ( 'detailed design', #149, 'design' ) ;
#230 = CARTESIAN_POINT ( 'NONE',  ( 12.50000000000000000, 12.50000000000000000, 0.000000000000000000 ) ) ;
#231 = ORIENTED_EDGE ( 'NONE', *, *, #7, .F. ) ;
#232 = LINE ( 'NONE', #116, #24 ) ;
#233 = ORIENTED_EDGE ( 'NONE', *, *, #209, .T. ) ;
#234 = EDGE_CURVE ( 'NONE', #9, #79, #161, .T. ) ;
#235 = SECURITY_CLASSIFICATION ( '', '', #39 ) ;
#236 = ORIENTED_EDGE ( 'NONE', *, *, #87, .F. ) ;
#237 = DIRECTION ( 'NONE',  ( -0.000000000000000000, -0.000000000000000000, -1.000000000000000000 ) ) ;
ENDSEC;
END-ISO-10303-21;
