ISO-10303-21;
HEADER;
FILE_DESCRIPTION (( 'STEP AP203' ),
    '1' );
FILE_NAME ('Web Model 45581_13323.step',
    '2020-11-03T21:52:49',
    ( '' ),
    ( '' ),
    'SwSTEP 2.0',
    'SolidWorks 2018',
    '' );
FILE_SCHEMA (( 'CONFIG_CONTROL_DESIGN' ));
ENDSEC;

DATA;
#1 = CIRCLE ( 'NONE', #54, 20.00000000000000000 ) ;
#2 = PRODUCT_DEFINITION_SHAPE ( 'NONE', 'NONE',  #146 ) ;
#3 = CALENDAR_DATE ( 2020, 3, 11 ) ;
#4 = EDGE_LOOP ( 'NONE', ( #25, #165, #84, #149 ) ) ;
#5 = CC_DESIGN_PERSON_AND_ORGANIZATION_ASSIGNMENT ( #51, #6, ( #26 ) ) ;
#6 = PERSON_AND_ORGANIZATION_ROLE ( 'design_supplier' ) ;
#7 = CC_DESIGN_APPROVAL ( #42, ( #12 ) ) ;
#8 = APPROVAL_ROLE ( '' ) ;
#9 = APPLICATION_CONTEXT ( 'configuration controlled 3d designs of mechanical parts and assemblies' ) ;
#10 = VERTEX_POINT ( 'NONE', #101 ) ;
#11 = ADVANCED_BREP_SHAPE_REPRESENTATION ( 'Web Model 45581_13323', ( #169, #28 ), #137 ) ;
#12 = SECURITY_CLASSIFICATION ( '', '', #65 ) ;
#13 = CC_DESIGN_SECURITY_CLASSIFICATION ( #12, ( #26 ) ) ;
#14 = LOCAL_TIME ( 16, 52, 49.00000000000000000, #61 ) ;
#15 = ORIENTED_EDGE ( 'NONE', *, *, #112, .F. ) ;
#16 = DIRECTION ( 'NONE',  ( 0.0000000000000000000, 0.0000000000000000000, 1.000000000000000000 ) ) ;
#17 = CARTESIAN_POINT ( 'NONE',  ( 0.0000000000000000000, 0.0000000000000000000, 0.0000000000000000000 ) ) ;
#18 = DIRECTION ( 'NONE',  ( 1.000000000000000000, 0.0000000000000000000, 0.0000000000000000000 ) ) ;
#19 = CARTESIAN_POINT ( 'NONE',  ( 0.0000000000000000000, 0.0000000000000000000, 0.0000000000000000000 ) ) ;
#20 = DIRECTION ( 'NONE',  ( 1.000000000000000000, 0.0000000000000000000, -0.0000000000000000000 ) ) ;
#21 = PERSON_AND_ORGANIZATION ( #173, #56 ) ;
#22 =( NAMED_UNIT ( * ) PLANE_ANGLE_UNIT ( ) SI_UNIT ( $, .RADIAN. ) );
#23 = CALENDAR_DATE ( 2020, 3, 11 ) ;
#24 = LOCAL_TIME ( 16, 52, 49.00000000000000000, #29 ) ;
#25 = ORIENTED_EDGE ( 'NONE', *, *, #57, .T. ) ;
#26 = PRODUCT_DEFINITION_FORMATION_WITH_SPECIFIED_SOURCE ( 'ANY', '', #110, .NOT_KNOWN. ) ;
#27 = DATE_AND_TIME ( #119, #164 ) ;
#28 = AXIS2_PLACEMENT_3D ( 'NONE', #109, #161, #37 ) ;
#29 = COORDINATED_UNIVERSAL_TIME_OFFSET ( 5, 0, .BEHIND. ) ;
#30 = EDGE_LOOP ( 'NONE', ( #113, #116 ) ) ;
#31 = DIRECTION ( 'NONE',  ( 0.0000000000000000000, 0.0000000000000000000, 1.000000000000000000 ) ) ;
#32 = PLANE ( 'NONE',  #148 ) ;
#33 = CC_DESIGN_DATE_AND_TIME_ASSIGNMENT ( #89, #48, ( #12 ) ) ;
#34 = LOCAL_TIME ( 16, 52, 49.00000000000000000, #97 ) ;
#35 = PERSON_AND_ORGANIZATION_ROLE ( 'classification_officer' ) ;
#36 = VECTOR ( 'NONE', #50, 1000.000000000000000 ) ;
#37 = DIRECTION ( 'NONE',  ( 1.000000000000000000, 0.0000000000000000000, 0.0000000000000000000 ) ) ;
#38 = CC_DESIGN_PERSON_AND_ORGANIZATION_ASSIGNMENT ( #43, #91, ( #26 ) ) ;
#39 = LINE ( 'NONE', #90, #36 ) ;
#40 = CC_DESIGN_PERSON_AND_ORGANIZATION_ASSIGNMENT ( #126, #118, ( #110 ) ) ;
#41 = ORIENTED_EDGE ( 'NONE', *, *, #102, .F. ) ;
#42 = APPROVAL ( #168, 'UNSPECIFIED' ) ;
#43 = PERSON_AND_ORGANIZATION ( #173, #56 ) ;
#44 = AXIS2_PLACEMENT_3D ( 'NONE', #17, #31, #142 ) ;
#45 = ORIENTED_EDGE ( 'NONE', *, *, #57, .F. ) ;
#46 = APPLICATION_PROTOCOL_DEFINITION ( 'international standard', 'config_control_design', 1994, #9 ) ;
#47 = APPROVAL_PERSON_ORGANIZATION ( #21, #81, #107 ) ;
#48 = DATE_TIME_ROLE ( 'classification_date' ) ;
#49 = APPROVAL ( #159, 'UNSPECIFIED' ) ;
#50 = DIRECTION ( 'NONE',  ( 0.0000000000000000000, 0.0000000000000000000, 1.000000000000000000 ) ) ;
#51 = PERSON_AND_ORGANIZATION ( #173, #56 ) ;
#52 = AXIS2_PLACEMENT_3D ( 'NONE', #141, #73, #18 ) ;
#53 = COORDINATED_UNIVERSAL_TIME_OFFSET ( 5, 0, .BEHIND. ) ;
#54 = AXIS2_PLACEMENT_3D ( 'NONE', #85, #59, #115 ) ;
#55 = ORIENTED_EDGE ( 'NONE', *, *, #145, .T. ) ;
#56 = ORGANIZATION ( 'UNSPECIFIED', 'UNSPECIFIED', '' ) ;
#57 = EDGE_CURVE ( 'NONE', #10, #82, #1, .T. ) ;
#58 = SHAPE_DEFINITION_REPRESENTATION ( #2, #11 ) ;
#59 = DIRECTION ( 'NONE',  ( 0.0000000000000000000, 0.0000000000000000000, 1.000000000000000000 ) ) ;
#60 = CC_DESIGN_PERSON_AND_ORGANIZATION_ASSIGNMENT ( #125, #35, ( #12 ) ) ;
#61 = COORDINATED_UNIVERSAL_TIME_OFFSET ( 5, 0, .BEHIND. ) ;
#62 = APPROVAL_DATE_TIME ( #114, #49 ) ;
#63 = CARTESIAN_POINT ( 'NONE',  ( 0.0000000000000000000, 0.0000000000000000000, -4.000000000000000000 ) ) ;
#64 = DATE_TIME_ROLE ( 'creation_date' ) ;
#65 = SECURITY_CLASSIFICATION_LEVEL ( 'unclassified' ) ;
#66 = ADVANCED_FACE ( 'NONE', ( #147 ), #95, .T. ) ;
#67 = COORDINATED_UNIVERSAL_TIME_OFFSET ( 5, 0, .BEHIND. ) ;
#68 = PRODUCT_RELATED_PRODUCT_CATEGORY ( 'detail', '', ( #110 ) ) ;
#69 = VERTEX_POINT ( 'NONE', #140 ) ;
#70 = CYLINDRICAL_SURFACE ( 'NONE', #122, 20.00000000000000000 ) ;
#71 = AXIS2_PLACEMENT_3D ( 'NONE', #152, #130, #166 ) ;
#72 = CARTESIAN_POINT ( 'NONE',  ( 20.00000000000000000, 0.0000000000000000000, 0.0000000000000000000 ) ) ;
#73 = DIRECTION ( 'NONE',  ( 0.0000000000000000000, 0.0000000000000000000, 1.000000000000000000 ) ) ;
#74 = VERTEX_POINT ( 'NONE', #72 ) ;
#75 = CARTESIAN_POINT ( 'NONE',  ( 0.0000000000000000000, 0.0000000000000000000, -4.000000000000000000 ) ) ;
#76 = DIRECTION ( 'NONE',  ( 0.0000000000000000000, 0.0000000000000000000, 1.000000000000000000 ) ) ;
#77 = CIRCLE ( 'NONE', #71, 20.00000000000000000 ) ;
#78 = UNCERTAINTY_MEASURE_WITH_UNIT (LENGTH_MEASURE( 1.000000000000000082E-05 ), #132, 'distance_accuracy_value', 'NONE');
#79 = PLANE ( 'NONE',  #136 ) ;
#80 = APPROVAL_PERSON_ORGANIZATION ( #99, #49, #8 ) ;
#81 = APPROVAL ( #144, 'UNSPECIFIED' ) ;
#82 = VERTEX_POINT ( 'NONE', #153 ) ;
#83 = LOCAL_TIME ( 16, 52, 49.00000000000000000, #67 ) ;
#84 = ORIENTED_EDGE ( 'NONE', *, *, #120, .F. ) ;
#85 = CARTESIAN_POINT ( 'NONE',  ( 0.0000000000000000000, 0.0000000000000000000, -4.000000000000000000 ) ) ;
#86 = PERSON_AND_ORGANIZATION ( #173, #56 ) ;
#87 = DIRECTION ( 'NONE',  ( 0.0000000000000000000, 0.0000000000000000000, 1.000000000000000000 ) ) ;
#88 = MECHANICAL_CONTEXT ( 'NONE', #93, 'mechanical' ) ;
#89 = DATE_AND_TIME ( #23, #34 ) ;
#90 = CARTESIAN_POINT ( 'NONE',  ( -20.00000000000000000, 2.449293598294706513E-15, -4.000000000000000000 ) ) ;
#91 = PERSON_AND_ORGANIZATION_ROLE ( 'creator' ) ;
#92 =( NAMED_UNIT ( * ) SI_UNIT ( $, .STERADIAN. ) SOLID_ANGLE_UNIT ( ) );
#93 = APPLICATION_CONTEXT ( 'configuration controlled 3d designs of mechanical parts and assemblies' ) ;
#94 = APPROVAL_DATE_TIME ( #128, #81 ) ;
#95 = CYLINDRICAL_SURFACE ( 'NONE', #151, 20.00000000000000000 ) ;
#96 = EDGE_LOOP ( 'NONE', ( #108, #129, #55, #15 ) ) ;
#97 = COORDINATED_UNIVERSAL_TIME_OFFSET ( 5, 0, .BEHIND. ) ;
#98 = ADVANCED_FACE ( 'NONE', ( #104 ), #70, .T. ) ;
#99 = PERSON_AND_ORGANIZATION ( #173, #56 ) ;
#100 = CARTESIAN_POINT ( 'NONE',  ( 0.0000000000000000000, 0.0000000000000000000, -4.000000000000000000 ) ) ;
#101 = CARTESIAN_POINT ( 'NONE',  ( 20.00000000000000000, 0.0000000000000000000, -4.000000000000000000 ) ) ;
#102 = EDGE_CURVE ( 'NONE', #82, #10, #139, .T. ) ;
#103 = DIRECTION ( 'NONE',  ( 0.0000000000000000000, 0.0000000000000000000, 1.000000000000000000 ) ) ;
#104 = FACE_OUTER_BOUND ( 'NONE', #96, .T. ) ;
#105 = APPLICATION_PROTOCOL_DEFINITION ( 'international standard', 'config_control_design', 1994, #93 ) ;
#106 = PERSON_AND_ORGANIZATION ( #173, #56 ) ;
#107 = APPROVAL_ROLE ( '' ) ;
#108 = ORIENTED_EDGE ( 'NONE', *, *, #127, .F. ) ;
#109 = CARTESIAN_POINT ( 'NONE',  ( 0.0000000000000000000, 0.0000000000000000000, 0.0000000000000000000 ) ) ;
#110 = PRODUCT ( 'Web Model 45581_13323', 'Web Model 45581_13323', '', ( #88 ) ) ;
#111 = LINE ( 'NONE', #143, #123 ) ;
#112 = EDGE_CURVE ( 'NONE', #69, #74, #135, .T. ) ;
#113 = ORIENTED_EDGE ( 'NONE', *, *, #120, .T. ) ;
#114 = DATE_AND_TIME ( #3, #83 ) ;
#115 = DIRECTION ( 'NONE',  ( 1.000000000000000000, 0.0000000000000000000, 0.0000000000000000000 ) ) ;
#116 = ORIENTED_EDGE ( 'NONE', *, *, #112, .T. ) ;
#117 = DIRECTION ( 'NONE',  ( 1.000000000000000000, 0.0000000000000000000, 0.0000000000000000000 ) ) ;
#118 = PERSON_AND_ORGANIZATION_ROLE ( 'design_owner' ) ;
#119 = CALENDAR_DATE ( 2020, 3, 11 ) ;
#120 = EDGE_CURVE ( 'NONE', #74, #69, #77, .T. ) ;
#121 = EDGE_LOOP ( 'NONE', ( #45, #41 ) ) ;
#122 = AXIS2_PLACEMENT_3D ( 'NONE', #100, #103, #155 ) ;
#123 = VECTOR ( 'NONE', #131, 1000.000000000000000 ) ;
#124 = ADVANCED_FACE ( 'NONE', ( #172 ), #32, .T. ) ;
#125 = PERSON_AND_ORGANIZATION ( #173, #56 ) ;
#126 = PERSON_AND_ORGANIZATION ( #173, #56 ) ;
#127 = EDGE_CURVE ( 'NONE', #82, #69, #39, .T. ) ;
#128 = DATE_AND_TIME ( #134, #24 ) ;
#129 = ORIENTED_EDGE ( 'NONE', *, *, #102, .T. ) ;
#130 = DIRECTION ( 'NONE',  ( 0.0000000000000000000, 0.0000000000000000000, 1.000000000000000000 ) ) ;
#131 = DIRECTION ( 'NONE',  ( 0.0000000000000000000, 0.0000000000000000000, 1.000000000000000000 ) ) ;
#132 =( LENGTH_UNIT ( ) NAMED_UNIT ( * ) SI_UNIT ( .MILLI., .METRE. ) );
#133 = APPROVAL_ROLE ( '' ) ;
#134 = CALENDAR_DATE ( 2020, 3, 11 ) ;
#135 = CIRCLE ( 'NONE', #44, 20.00000000000000000 ) ;
#136 = AXIS2_PLACEMENT_3D ( 'NONE', #63, #76, #157 ) ;
#137 =( GEOMETRIC_REPRESENTATION_CONTEXT ( 3 ) GLOBAL_UNCERTAINTY_ASSIGNED_CONTEXT ( ( #78 ) ) GLOBAL_UNIT_ASSIGNED_CONTEXT ( ( #132, #22, #92 ) ) REPRESENTATION_CONTEXT ( 'NONE', 'WORKASPACE' ) );
#138 = ADVANCED_FACE ( 'NONE', ( #174 ), #79, .F. ) ;
#139 = CIRCLE ( 'NONE', #52, 20.00000000000000000 ) ;
#140 = CARTESIAN_POINT ( 'NONE',  ( -20.00000000000000000, 2.449293598294706513E-15, 0.0000000000000000000 ) ) ;
#141 = CARTESIAN_POINT ( 'NONE',  ( 0.0000000000000000000, 0.0000000000000000000, -4.000000000000000000 ) ) ;
#142 = DIRECTION ( 'NONE',  ( 1.000000000000000000, 0.0000000000000000000, 0.0000000000000000000 ) ) ;
#143 = CARTESIAN_POINT ( 'NONE',  ( 20.00000000000000000, 0.0000000000000000000, -4.000000000000000000 ) ) ;
#144 = APPROVAL_STATUS ( 'not_yet_approved' ) ;
#145 = EDGE_CURVE ( 'NONE', #10, #74, #111, .T. ) ;
#146 = PRODUCT_DEFINITION ( 'UNKNOWN', '', #26, #160 ) ;
#147 = FACE_OUTER_BOUND ( 'NONE', #4, .T. ) ;
#148 = AXIS2_PLACEMENT_3D ( 'NONE', #19, #16, #20 ) ;
#149 = ORIENTED_EDGE ( 'NONE', *, *, #145, .F. ) ;
#150 = DATE_AND_TIME ( #163, #14 ) ;
#151 = AXIS2_PLACEMENT_3D ( 'NONE', #75, #87, #117 ) ;
#152 = CARTESIAN_POINT ( 'NONE',  ( 0.0000000000000000000, 0.0000000000000000000, 0.0000000000000000000 ) ) ;
#153 = CARTESIAN_POINT ( 'NONE',  ( -20.00000000000000000, 2.449293598294706513E-15, -4.000000000000000000 ) ) ;
#154 = CLOSED_SHELL ( 'NONE', ( #66, #98, #138, #124 ) ) ;
#155 = DIRECTION ( 'NONE',  ( 1.000000000000000000, 0.0000000000000000000, 0.0000000000000000000 ) ) ;
#156 = CC_DESIGN_APPROVAL ( #81, ( #146 ) ) ;
#157 = DIRECTION ( 'NONE',  ( 1.000000000000000000, 0.0000000000000000000, -0.0000000000000000000 ) ) ;
#158 = PERSON_AND_ORGANIZATION_ROLE ( 'creator' ) ;
#159 = APPROVAL_STATUS ( 'not_yet_approved' ) ;
#160 = DESIGN_CONTEXT ( 'detailed design', #9, 'design' ) ;
#161 = DIRECTION ( 'NONE',  ( 0.0000000000000000000, 0.0000000000000000000, 1.000000000000000000 ) ) ;
#162 = CC_DESIGN_PERSON_AND_ORGANIZATION_ASSIGNMENT ( #106, #158, ( #146 ) ) ;
#163 = CALENDAR_DATE ( 2020, 3, 11 ) ;
#164 = LOCAL_TIME ( 16, 52, 49.00000000000000000, #53 ) ;
#165 = ORIENTED_EDGE ( 'NONE', *, *, #127, .T. ) ;
#166 = DIRECTION ( 'NONE',  ( 1.000000000000000000, 0.0000000000000000000, 0.0000000000000000000 ) ) ;
#167 = APPROVAL_DATE_TIME ( #27, #42 ) ;
#168 = APPROVAL_STATUS ( 'not_yet_approved' ) ;
#169 = MANIFOLD_SOLID_BREP ( 'Extrude1', #154 ) ;
#170 = APPROVAL_PERSON_ORGANIZATION ( #86, #42, #133 ) ;
#171 = CC_DESIGN_APPROVAL ( #49, ( #26 ) ) ;
#172 = FACE_OUTER_BOUND ( 'NONE', #30, .T. ) ;
#173 = PERSON ( 'UNSPECIFIED', 'UNSPECIFIED', 'UNSPECIFIED', ('UNSPECIFIED'), ('UNSPECIFIED'), ('UNSPECIFIED') ) ;
#174 = FACE_OUTER_BOUND ( 'NONE', #121, .T. ) ;
#175 = CC_DESIGN_DATE_AND_TIME_ASSIGNMENT ( #150, #64, ( #146 ) ) ;
ENDSEC;
END-ISO-10303-21;
