ISO-10303-21;
HEADER;
FILE_DESCRIPTION (( 'STEP AP203' ),
    '1' );
FILE_NAME ('Web Model 17169_17179.step',
    '2021-08-09T14:37:49',
    ( '' ),
    ( '' ),
    'SwSTEP 2.0',
    'SolidWorks 2018',
    '' );
FILE_SCHEMA (( 'CONFIG_CONTROL_DESIGN' ));
ENDSEC;

DATA;
#1 = LOCAL_TIME ( 10, 37, 49.00000000000000000, #51 ) ;
#2 = CARTESIAN_POINT ( 'NONE',  ( -1.968503937007876070, 0.000000000000000000, 0.000000000000000000 ) ) ;
#3 = CC_DESIGN_DATE_AND_TIME_ASSIGNMENT ( #79, #174, ( #46 ) ) ;
#4 = COORDINATED_UNIVERSAL_TIME_OFFSET ( 5, 0, .BEHIND. ) ;
#5 = VERTEX_POINT ( 'NONE', #158 ) ;
#6 =( NAMED_UNIT ( * ) PLANE_ANGLE_UNIT ( ) SI_UNIT ( $, .RADIAN. ) );
#7 = PERSON_AND_ORGANIZATION ( #103, #57 ) ;
#8 = EDGE_LOOP ( 'NONE', ( #86, #170 ) ) ;
#9 = COORDINATED_UNIVERSAL_TIME_OFFSET ( 5, 0, .BEHIND. ) ;
#10 = APPROVAL_DATE_TIME ( #124, #65 ) ;
#11 = DESIGN_CONTEXT ( 'detailed design', #62, 'design' ) ;
#12 = PRODUCT ( 'Web Model 17169_17179', 'Web Model 17169_17179', '', ( #163 ) ) ;
#13 = LOCAL_TIME ( 10, 37, 49.00000000000000000, #49 ) ;
#14 = CYLINDRICAL_SURFACE ( 'NONE', #133, 1.968503937007876070 ) ;
#15 = VERTEX_POINT ( 'NONE', #2 ) ;
#16 = CARTESIAN_POINT ( 'NONE',  ( 0.000000000000000000, 0.000000000000000000, 0.1181102362204724532 ) ) ;
#17 = ORIENTED_EDGE ( 'NONE', *, *, #151, .T. ) ;
#18 = APPLICATION_PROTOCOL_DEFINITION ( 'international standard', 'config_control_design', 1994, #136 ) ;
#19 = DIRECTION ( 'NONE',  ( 1.000000000000000000, 0.000000000000000000, -0.000000000000000000 ) ) ;
#20 = DIRECTION ( 'NONE',  ( 0.000000000000000000, 0.000000000000000000, 1.000000000000000000 ) ) ;
#21 = PERSON_AND_ORGANIZATION ( #103, #57 ) ;
#22 = APPROVAL_ROLE ( '' ) ;
#23 = APPROVAL_STATUS ( 'not_yet_approved' ) ;
#24 = CIRCLE ( 'NONE', #164, 1.968503937007876070 ) ;
#25 = PRODUCT_DEFINITION_FORMATION_WITH_SPECIFIED_SOURCE ( 'ANY', '', #12, .NOT_KNOWN. ) ;
#26 = CIRCLE ( 'NONE', #80, 1.968503937007876070 ) ;
#27 = DATE_AND_TIME ( #55, #47 ) ;
#28 = FACE_OUTER_BOUND ( 'NONE', #129, .T. ) ;
#29 = EDGE_LOOP ( 'NONE', ( #38, #132 ) ) ;
#30 = EDGE_CURVE ( 'NONE', #15, #105, #24, .T. ) ;
#31 = PLANE ( 'NONE',  #37 ) ;
#32 = DIRECTION ( 'NONE',  ( -0.000000000000000000, -0.000000000000000000, -1.000000000000000000 ) ) ;
#33 = CARTESIAN_POINT ( 'NONE',  ( 1.968503937007876070, 2.410722045565658412E-16, 0.000000000000000000 ) ) ;
#34 = PERSON_AND_ORGANIZATION_ROLE ( 'classification_officer' ) ;
#35 = DATE_AND_TIME ( #104, #1 ) ;
#36 = PERSON_AND_ORGANIZATION_ROLE ( 'creator' ) ;
#37 = AXIS2_PLACEMENT_3D ( 'NONE', #90, #20, #19 ) ;
#38 = ORIENTED_EDGE ( 'NONE', *, *, #30, .F. ) ;
#39 = AXIS2_PLACEMENT_3D ( 'NONE', #77, #101, #88 ) ;
#40 = VECTOR ( 'NONE', #58, 39.37007874015748143 ) ;
#41 = PLANE ( 'NONE',  #147 ) ;
#42 = DIRECTION ( 'NONE',  ( 1.000000000000000000, 0.000000000000000000, -0.000000000000000000 ) ) ;
#43 = PERSON_AND_ORGANIZATION ( #103, #57 ) ;
#44 = APPROVAL_STATUS ( 'not_yet_approved' ) ;
#45 = DIRECTION ( 'NONE',  ( 0.000000000000000000, 0.000000000000000000, 1.000000000000000000 ) ) ;
#46 = PRODUCT_DEFINITION ( 'UNKNOWN', '', #25, #11 ) ;
#47 = LOCAL_TIME ( 10, 37, 49.00000000000000000, #72 ) ;
#48 = LENGTH_MEASURE_WITH_UNIT ( LENGTH_MEASURE( 0.02539999999999999897 ), #137 );
#49 = COORDINATED_UNIVERSAL_TIME_OFFSET ( 5, 0, .BEHIND. ) ;
#50 = ORIENTED_EDGE ( 'NONE', *, *, #140, .F. ) ;
#51 = COORDINATED_UNIVERSAL_TIME_OFFSET ( 5, 0, .BEHIND. ) ;
#52 = LOCAL_TIME ( 10, 37, 49.00000000000000000, #4 ) ;
#53 = CC_DESIGN_PERSON_AND_ORGANIZATION_ASSIGNMENT ( #109, #34, ( #119 ) ) ;
#54 = EDGE_LOOP ( 'NONE', ( #169, #50, #17, #162 ) ) ;
#55 = CALENDAR_DATE ( 2021, 9, 8 ) ;
#56 = CC_DESIGN_PERSON_AND_ORGANIZATION_ASSIGNMENT ( #43, #160, ( #46 ) ) ;
#57 = ORGANIZATION ( 'UNSPECIFIED', 'UNSPECIFIED', '' ) ;
#58 = DIRECTION ( 'NONE',  ( -0.000000000000000000, -0.000000000000000000, -1.000000000000000000 ) ) ;
#59 = DIRECTION ( 'NONE',  ( -1.000000000000000000, 0.000000000000000000, 0.000000000000000000 ) ) ;
#60 = DIRECTION ( 'NONE',  ( 0.000000000000000000, 0.000000000000000000, 1.000000000000000000 ) ) ;
#61 = APPROVAL_STATUS ( 'not_yet_approved' ) ;
#62 = APPLICATION_CONTEXT ( 'configuration controlled 3d designs of mechanical parts and assemblies' ) ;
#63 = PERSON_AND_ORGANIZATION_ROLE ( 'design_supplier' ) ;
#64 = ADVANCED_FACE ( 'NONE', ( #28 ), #95, .T. ) ;
#65 = APPROVAL ( #23, 'UNSPECIFIED' ) ;
#66 = ADVANCED_FACE ( 'NONE', ( #131 ), #14, .T. ) ;
#67 = UNCERTAINTY_MEASURE_WITH_UNIT (LENGTH_MEASURE( 1.000000000000000082E-05 ), #149, 'distance_accuracy_value', 'NONE');
#68 = EDGE_CURVE ( 'NONE', #94, #105, #110, .T. ) ;
#69 = SHAPE_DEFINITION_REPRESENTATION ( #142, #73 ) ;
#70 = CARTESIAN_POINT ( 'NONE',  ( 0.000000000000000000, 0.000000000000000000, 0.000000000000000000 ) ) ;
#71 = CARTESIAN_POINT ( 'NONE',  ( -1.968503937007876070, 0.000000000000000000, 0.1181102362204724532 ) ) ;
#72 = COORDINATED_UNIVERSAL_TIME_OFFSET ( 5, 0, .BEHIND. ) ;
#73 = ADVANCED_BREP_SHAPE_REPRESENTATION ( 'Web Model 17169_17179', ( #141, #39 ), #167 ) ;
#74 = ORIENTED_EDGE ( 'NONE', *, *, #151, .F. ) ;
#75 = DIRECTION ( 'NONE',  ( 1.000000000000000000, 0.000000000000000000, 0.000000000000000000 ) ) ;
#76 = CC_DESIGN_APPROVAL ( #65, ( #25 ) ) ;
#77 = CARTESIAN_POINT ( 'NONE',  ( 0.000000000000000000, 0.000000000000000000, 0.000000000000000000 ) ) ;
#78 = FACE_OUTER_BOUND ( 'NONE', #29, .T. ) ;
#79 = DATE_AND_TIME ( #113, #154 ) ;
#80 = AXIS2_PLACEMENT_3D ( 'NONE', #135, #60, #75 ) ;
#81 = CC_DESIGN_PERSON_AND_ORGANIZATION_ASSIGNMENT ( #118, #36, ( #25 ) ) ;
#82 = APPROVAL_DATE_TIME ( #127, #138 ) ;
#83 = CC_DESIGN_DATE_AND_TIME_ASSIGNMENT ( #27, #134, ( #119 ) ) ;
#84 = VECTOR ( 'NONE', #146, 39.37007874015748143 ) ;
#85 = DIRECTION ( 'NONE',  ( 0.000000000000000000, 0.000000000000000000, 1.000000000000000000 ) ) ;
#86 = ORIENTED_EDGE ( 'NONE', *, *, #140, .T. ) ;
#87 = APPLICATION_PROTOCOL_DEFINITION ( 'international standard', 'config_control_design', 1994, #62 ) ;
#88 = DIRECTION ( 'NONE',  ( 1.000000000000000000, 0.000000000000000000, 0.000000000000000000 ) ) ;
#89 =( NAMED_UNIT ( * ) SI_UNIT ( $, .STERADIAN. ) SOLID_ANGLE_UNIT ( ) );
#90 = CARTESIAN_POINT ( 'NONE',  ( 0.000000000000000000, 0.000000000000000000, 0.1181102362204724532 ) ) ;
#91 = APPROVAL_PERSON_ORGANIZATION ( #21, #65, #22 ) ;
#92 = APPROVAL_ROLE ( '' ) ;
#93 = CC_DESIGN_SECURITY_CLASSIFICATION ( #119, ( #25 ) ) ;
#94 = VERTEX_POINT ( 'NONE', #107 ) ;
#95 = CYLINDRICAL_SURFACE ( 'NONE', #155, 1.968503937007876070 ) ;
#96 = DIRECTION ( 'NONE',  ( 1.000000000000000000, 0.000000000000000000, 0.000000000000000000 ) ) ;
#97 = PERSON_AND_ORGANIZATION ( #103, #57 ) ;
#98 = CARTESIAN_POINT ( 'NONE',  ( 0.000000000000000000, 0.000000000000000000, 0.1181102362204724532 ) ) ;
#99 = AXIS2_PLACEMENT_3D ( 'NONE', #128, #85, #112 ) ;
#100 = FACE_OUTER_BOUND ( 'NONE', #8, .T. ) ;
#101 = DIRECTION ( 'NONE',  ( 0.000000000000000000, 0.000000000000000000, 1.000000000000000000 ) ) ;
#102 = APPROVAL ( #44, 'UNSPECIFIED' ) ;
#103 = PERSON ( 'UNSPECIFIED', 'UNSPECIFIED', 'UNSPECIFIED', ('UNSPECIFIED'), ('UNSPECIFIED'), ('UNSPECIFIED') ) ;
#104 = CALENDAR_DATE ( 2021, 9, 8 ) ;
#105 = VERTEX_POINT ( 'NONE', #33 ) ;
#106 = EDGE_CURVE ( 'NONE', #105, #15, #115, .T. ) ;
#107 = CARTESIAN_POINT ( 'NONE',  ( 1.968503937007876070, 2.410722045565658412E-16, 0.1181102362204724532 ) ) ;
#108 = CC_DESIGN_APPROVAL ( #102, ( #119 ) ) ;
#109 = PERSON_AND_ORGANIZATION ( #103, #57 ) ;
#110 = LINE ( 'NONE', #144, #40 ) ;
#111 = DIRECTION ( 'NONE',  ( -0.000000000000000000, -0.000000000000000000, -1.000000000000000000 ) ) ;
#112 = DIRECTION ( 'NONE',  ( 1.000000000000000000, 0.000000000000000000, 0.000000000000000000 ) ) ;
#113 = CALENDAR_DATE ( 2021, 9, 8 ) ;
#114 = SECURITY_CLASSIFICATION_LEVEL ( 'unclassified' ) ;
#115 = CIRCLE ( 'NONE', #99, 1.968503937007876070 ) ;
#116 = ORIENTED_EDGE ( 'NONE', *, *, #68, .T. ) ;
#117 = DIRECTION ( 'NONE',  ( 1.000000000000000000, 0.000000000000000000, 0.000000000000000000 ) ) ;
#118 = PERSON_AND_ORGANIZATION ( #103, #57 ) ;
#119 = SECURITY_CLASSIFICATION ( '', '', #114 ) ;
#120 = ADVANCED_FACE ( 'NONE', ( #78 ), #41, .F. ) ;
#121 = CALENDAR_DATE ( 2021, 9, 8 ) ;
#122 = ADVANCED_FACE ( 'NONE', ( #100 ), #31, .T. ) ;
#123 = CC_DESIGN_APPROVAL ( #138, ( #46 ) ) ;
#124 = DATE_AND_TIME ( #161, #52 ) ;
#125 = ORIENTED_EDGE ( 'NONE', *, *, #126, .F. ) ;
#126 = EDGE_CURVE ( 'NONE', #94, #5, #26, .T. ) ;
#127 = DATE_AND_TIME ( #121, #13 ) ;
#128 = CARTESIAN_POINT ( 'NONE',  ( 0.000000000000000000, 0.000000000000000000, 0.000000000000000000 ) ) ;
#129 = EDGE_LOOP ( 'NONE', ( #125, #116, #152, #74 ) ) ;
#130 = DIRECTION ( 'NONE',  ( 0.000000000000000000, 0.000000000000000000, 1.000000000000000000 ) ) ;
#131 = FACE_OUTER_BOUND ( 'NONE', #54, .T. ) ;
#132 = ORIENTED_EDGE ( 'NONE', *, *, #106, .F. ) ;
#133 = AXIS2_PLACEMENT_3D ( 'NONE', #16, #32, #145 ) ;
#134 = DATE_TIME_ROLE ( 'classification_date' ) ;
#135 = CARTESIAN_POINT ( 'NONE',  ( 0.000000000000000000, 0.000000000000000000, 0.1181102362204724532 ) ) ;
#136 = APPLICATION_CONTEXT ( 'configuration controlled 3d designs of mechanical parts and assemblies' ) ;
#137 =( LENGTH_UNIT ( ) NAMED_UNIT ( * ) SI_UNIT ( $, .METRE. ) );
#138 = APPROVAL ( #61, 'UNSPECIFIED' ) ;
#139 = AXIS2_PLACEMENT_3D ( 'NONE', #159, #45, #117 ) ;
#140 = EDGE_CURVE ( 'NONE', #5, #94, #157, .T. ) ;
#141 = MANIFOLD_SOLID_BREP ( 'Boss-Extrude1', #166 ) ;
#142 = PRODUCT_DEFINITION_SHAPE ( 'NONE', 'NONE',  #46 ) ;
#143 = CARTESIAN_POINT ( 'NONE',  ( 0.000000000000000000, 0.000000000000000000, 0.000000000000000000 ) ) ;
#144 = CARTESIAN_POINT ( 'NONE',  ( 1.968503937007876070, 2.410722045565658412E-16, 0.1181102362204724532 ) ) ;
#145 = DIRECTION ( 'NONE',  ( -1.000000000000000000, 0.000000000000000000, 0.000000000000000000 ) ) ;
#146 = DIRECTION ( 'NONE',  ( -0.000000000000000000, -0.000000000000000000, -1.000000000000000000 ) ) ;
#147 = AXIS2_PLACEMENT_3D ( 'NONE', #143, #130, #42 ) ;
#148 = PERSON_AND_ORGANIZATION_ROLE ( 'design_owner' ) ;
#149 =( CONVERSION_BASED_UNIT ( 'INCH', #48 ) LENGTH_UNIT ( ) NAMED_UNIT ( #178 ) );
#150 = PRODUCT_RELATED_PRODUCT_CATEGORY ( 'detail', '', ( #12 ) ) ;
#151 = EDGE_CURVE ( 'NONE', #5, #15, #168, .T. ) ;
#152 = ORIENTED_EDGE ( 'NONE', *, *, #106, .T. ) ;
#153 = PERSON_AND_ORGANIZATION ( #103, #57 ) ;
#154 = LOCAL_TIME ( 10, 37, 49.00000000000000000, #9 ) ;
#155 = AXIS2_PLACEMENT_3D ( 'NONE', #98, #111, #59 ) ;
#156 = APPROVAL_PERSON_ORGANIZATION ( #173, #102, #175 ) ;
#157 = CIRCLE ( 'NONE', #139, 1.968503937007876070 ) ;
#158 = CARTESIAN_POINT ( 'NONE',  ( -1.968503937007876070, 0.000000000000000000, 0.1181102362204724532 ) ) ;
#159 = CARTESIAN_POINT ( 'NONE',  ( 0.000000000000000000, 0.000000000000000000, 0.1181102362204724532 ) ) ;
#160 = PERSON_AND_ORGANIZATION_ROLE ( 'creator' ) ;
#161 = CALENDAR_DATE ( 2021, 9, 8 ) ;
#162 = ORIENTED_EDGE ( 'NONE', *, *, #30, .T. ) ;
#163 = MECHANICAL_CONTEXT ( 'NONE', #136, 'mechanical' ) ;
#164 = AXIS2_PLACEMENT_3D ( 'NONE', #70, #172, #96 ) ;
#165 = APPROVAL_PERSON_ORGANIZATION ( #97, #138, #92 ) ;
#166 = CLOSED_SHELL ( 'NONE', ( #64, #66, #122, #120 ) ) ;
#167 =( GEOMETRIC_REPRESENTATION_CONTEXT ( 3 ) GLOBAL_UNCERTAINTY_ASSIGNED_CONTEXT ( ( #67 ) ) GLOBAL_UNIT_ASSIGNED_CONTEXT ( ( #149, #6, #89 ) ) REPRESENTATION_CONTEXT ( 'NONE', 'WORKASPACE' ) );
#168 = LINE ( 'NONE', #71, #84 ) ;
#169 = ORIENTED_EDGE ( 'NONE', *, *, #68, .F. ) ;
#170 = ORIENTED_EDGE ( 'NONE', *, *, #126, .T. ) ;
#171 = CC_DESIGN_PERSON_AND_ORGANIZATION_ASSIGNMENT ( #153, #148, ( #12 ) ) ;
#172 = DIRECTION ( 'NONE',  ( 0.000000000000000000, 0.000000000000000000, 1.000000000000000000 ) ) ;
#173 = PERSON_AND_ORGANIZATION ( #103, #57 ) ;
#174 = DATE_TIME_ROLE ( 'creation_date' ) ;
#175 = APPROVAL_ROLE ( '' ) ;
#176 = APPROVAL_DATE_TIME ( #35, #102 ) ;
#177 = CC_DESIGN_PERSON_AND_ORGANIZATION_ASSIGNMENT ( #7, #63, ( #25 ) ) ;
#178 = DIMENSIONAL_EXPONENTS ( 1.000000000000000000, 0.000000000000000000, 0.000000000000000000, 0.000000000000000000, 0.000000000000000000, 0.000000000000000000, 0.000000000000000000 ) ;
ENDSEC;
END-ISO-10303-21;
