ISO-10303-21;
HEADER;
FILE_DESCRIPTION (( 'STEP AP203' ),
    '1' );
FILE_NAME ('Web Model 64402MX_64403.step',
    '2017-10-30T13:11:42',
    ( '' ),
    ( '' ),
    'SwSTEP 2.0',
    'SolidWorks 2016',
    '' );
FILE_SCHEMA (( 'CONFIG_CONTROL_DESIGN' ));
ENDSEC;

DATA;
#1 = LINE ( 'NONE', #219, #54 ) ;
#2 = EDGE_CURVE ( 'NONE', #5, #237, #92, .T. ) ;
#3 = DIRECTION ( 'NONE',  ( 1.000000000000000000, 0.0000000000000000000, -0.0000000000000000000 ) ) ;
#4 = PERSON_AND_ORGANIZATION_ROLE ( 'design_supplier' ) ;
#5 = VERTEX_POINT ( 'NONE', #166 ) ;
#6 = CARTESIAN_POINT ( 'NONE',  ( 12.49999999999999800, -12.49999999999999600, 4.750000000000000000 ) ) ;
#7 = CARTESIAN_POINT ( 'NONE',  ( 12.49999999999999800, -12.49999999999999600, 4.750000000000000000 ) ) ;
#8 = ORIENTED_EDGE ( 'NONE', *, *, #141, .T. ) ;
#9 = ORIENTED_EDGE ( 'NONE', *, *, #135, .T. ) ;
#10 = APPROVAL ( #38, 'UNSPECIFIED' ) ;
#11 = ADVANCED_FACE ( 'NONE', ( #235 ), #78, .F. ) ;
#12 =( LENGTH_UNIT ( ) NAMED_UNIT ( * ) SI_UNIT ( .MILLI., .METRE. ) );
#13 = DIRECTION ( 'NONE',  ( -1.000000000000000000, -1.387778780781445700E-016, 0.0000000000000000000 ) ) ;
#14 = PERSON_AND_ORGANIZATION ( #227, #172 ) ;
#15 = EDGE_LOOP ( 'NONE', ( #9, #143, #159, #8 ) ) ;
#16 = COORDINATED_UNIVERSAL_TIME_OFFSET ( 5, 0, .BEHIND. ) ;
#17 = ORIENTED_EDGE ( 'NONE', *, *, #141, .F. ) ;
#18 = PRODUCT_DEFINITION_FORMATION_WITH_SPECIFIED_SOURCE ( 'ANY', '', #125, .NOT_KNOWN. ) ;
#19 = CALENDAR_DATE ( 2017, 30, 10 ) ;
#20 = VECTOR ( 'NONE', #106, 1000.000000000000000 ) ;
#21 = FACE_OUTER_BOUND ( 'NONE', #15, .T. ) ;
#22 = ORIENTED_EDGE ( 'NONE', *, *, #212, .T. ) ;
#23 = UNCERTAINTY_MEASURE_WITH_UNIT (LENGTH_MEASURE( 1.000000000000000100E-005 ), #12, 'distance_accuracy_value', 'NONE');
#24 = PERSON_AND_ORGANIZATION_ROLE ( 'creator' ) ;
#25 = PERSON_AND_ORGANIZATION_ROLE ( 'creator' ) ;
#26 =( GEOMETRIC_REPRESENTATION_CONTEXT ( 3 ) GLOBAL_UNCERTAINTY_ASSIGNED_CONTEXT ( ( #23 ) ) GLOBAL_UNIT_ASSIGNED_CONTEXT ( ( #12, #211, #95 ) ) REPRESENTATION_CONTEXT ( 'NONE', 'WORKASPACE' ) );
#27 = LINE ( 'NONE', #228, #214 ) ;
#28 = EDGE_LOOP ( 'NONE', ( #192, #199, #153, #22 ) ) ;
#29 = CARTESIAN_POINT ( 'NONE',  ( 12.49999999999999800, 12.50000000000000400, 4.750000000000000000 ) ) ;
#30 = EDGE_CURVE ( 'NONE', #42, #209, #128, .T. ) ;
#31 = CARTESIAN_POINT ( 'NONE',  ( -12.50000000000000200, -12.50000000000000000, -4.750000000000000000 ) ) ;
#32 = APPROVAL_PERSON_ORGANIZATION ( #80, #130, #137 ) ;
#33 = VERTEX_POINT ( 'NONE', #7 ) ;
#34 = EDGE_CURVE ( 'NONE', #237, #42, #158, .T. ) ;
#35 = MANIFOLD_SOLID_BREP ( 'Boss-Extrude1', #233 ) ;
#36 = VECTOR ( 'NONE', #142, 1000.000000000000000 ) ;
#37 = DIRECTION ( 'NONE',  ( 0.0000000000000000000, -0.0000000000000000000, 1.000000000000000000 ) ) ;
#38 = APPROVAL_STATUS ( 'not_yet_approved' ) ;
#39 = CC_DESIGN_DATE_AND_TIME_ASSIGNMENT ( #98, #139, ( #107 ) ) ;
#40 = APPROVAL_ROLE ( '' ) ;
#41 = DIRECTION ( 'NONE',  ( -0.0000000000000000000, -0.0000000000000000000, -1.000000000000000000 ) ) ;
#42 = VERTEX_POINT ( 'NONE', #61 ) ;
#43 = PERSON_AND_ORGANIZATION_ROLE ( 'design_owner' ) ;
#44 = DIRECTION ( 'NONE',  ( -1.000000000000000000, -1.387778780781445700E-016, 0.0000000000000000000 ) ) ;
#45 = CARTESIAN_POINT ( 'NONE',  ( -12.50000000000000200, 12.50000000000000000, -4.750000000000000000 ) ) ;
#46 = AXIS2_PLACEMENT_3D ( 'NONE', #145, #167, #13 ) ;
#47 = ORIENTED_EDGE ( 'NONE', *, *, #30, .F. ) ;
#48 = VERTEX_POINT ( 'NONE', #60 ) ;
#49 = PLANE ( 'NONE',  #189 ) ;
#50 = CARTESIAN_POINT ( 'NONE',  ( 0.0000000000000000000, 0.0000000000000000000, 0.0000000000000000000 ) ) ;
#51 = ADVANCED_FACE ( 'NONE', ( #204 ), #49, .F. ) ;
#52 = DIRECTION ( 'NONE',  ( -0.0000000000000000000, -1.000000000000000000, -0.0000000000000000000 ) ) ;
#53 = CC_DESIGN_PERSON_AND_ORGANIZATION_ASSIGNMENT ( #217, #25, ( #154 ) ) ;
#54 = VECTOR ( 'NONE', #57, 1000.000000000000000 ) ;
#55 = CC_DESIGN_APPROVAL ( #230, ( #107 ) ) ;
#56 = AXIS2_PLACEMENT_3D ( 'NONE', #162, #103, #3 ) ;
#57 = DIRECTION ( 'NONE',  ( -0.0000000000000000000, -0.0000000000000000000, -1.000000000000000000 ) ) ;
#58 = DIRECTION ( 'NONE',  ( 0.0000000000000000000, 1.000000000000000000, 0.0000000000000000000 ) ) ;
#59 = APPROVAL_STATUS ( 'not_yet_approved' ) ;
#60 = CARTESIAN_POINT ( 'NONE',  ( -12.50000000000000200, -12.50000000000000000, 4.750000000000000000 ) ) ;
#61 = CARTESIAN_POINT ( 'NONE',  ( 12.49999999999999800, 12.50000000000000400, -4.750000000000000000 ) ) ;
#62 = APPLICATION_CONTEXT ( 'configuration controlled 3d designs of mechanical parts and assemblies' ) ;
#63 = CC_DESIGN_SECURITY_CLASSIFICATION ( #107, ( #18 ) ) ;
#64 = DIRECTION ( 'NONE',  ( 1.000000000000000000, 1.387778780781445700E-016, 0.0000000000000000000 ) ) ;
#65 = VECTOR ( 'NONE', #44, 1000.000000000000000 ) ;
#66 = CARTESIAN_POINT ( 'NONE',  ( 12.49999999999999800, -12.49999999999999600, -4.750000000000000000 ) ) ;
#67 = PRODUCT_RELATED_PRODUCT_CATEGORY ( 'detail', '', ( #125 ) ) ;
#68 = COORDINATED_UNIVERSAL_TIME_OFFSET ( 5, 0, .BEHIND. ) ;
#69 = LOCAL_TIME ( 9, 11, 42.00000000000000000, #68 ) ;
#70 = VECTOR ( 'NONE', #41, 1000.000000000000000 ) ;
#71 = PERSON_AND_ORGANIZATION ( #227, #172 ) ;
#72 = VECTOR ( 'NONE', #149, 1000.000000000000000 ) ;
#73 = DATE_TIME_ROLE ( 'creation_date' ) ;
#74 = DESIGN_CONTEXT ( 'detailed design', #222, 'design' ) ;
#75 = DIRECTION ( 'NONE',  ( 1.000000000000000000, 0.0000000000000000000, 0.0000000000000000000 ) ) ;
#76 = ORIENTED_EDGE ( 'NONE', *, *, #226, .T. ) ;
#77 = ORIENTED_EDGE ( 'NONE', *, *, #34, .T. ) ;
#78 = PLANE ( 'NONE',  #105 ) ;
#79 = APPROVAL_DATE_TIME ( #113, #230 ) ;
#80 = PERSON_AND_ORGANIZATION ( #227, #172 ) ;
#81 = ORIENTED_EDGE ( 'NONE', *, *, #83, .F. ) ;
#82 = LINE ( 'NONE', #193, #134 ) ;
#83 = EDGE_CURVE ( 'NONE', #48, #33, #232, .T. ) ;
#84 = ORIENTED_EDGE ( 'NONE', *, *, #2, .F. ) ;
#85 = DIRECTION ( 'NONE',  ( -1.000000000000000000, 0.0000000000000000000, 0.0000000000000000000 ) ) ;
#86 = MECHANICAL_CONTEXT ( 'NONE', #62, 'mechanical' ) ;
#87 = PERSON_AND_ORGANIZATION ( #227, #172 ) ;
#88 = DIRECTION ( 'NONE',  ( 0.0000000000000000000, 0.0000000000000000000, -1.000000000000000000 ) ) ;
#89 = LINE ( 'NONE', #210, #173 ) ;
#90 = PERSON_AND_ORGANIZATION_ROLE ( 'classification_officer' ) ;
#91 = DIRECTION ( 'NONE',  ( 1.000000000000000000, 0.0000000000000000000, -0.0000000000000000000 ) ) ;
#92 = LINE ( 'NONE', #127, #36 ) ;
#93 = ADVANCED_FACE ( 'NONE', ( #21 ), #200, .F. ) ;
#94 = DIRECTION ( 'NONE',  ( -1.000000000000000000, -1.387778780781445700E-016, 0.0000000000000000000 ) ) ;
#95 =( NAMED_UNIT ( * ) SI_UNIT ( $, .STERADIAN. ) SOLID_ANGLE_UNIT ( ) );
#96 = VECTOR ( 'NONE', #58, 1000.000000000000000 ) ;
#97 = CC_DESIGN_PERSON_AND_ORGANIZATION_ASSIGNMENT ( #71, #24, ( #18 ) ) ;
#98 = DATE_AND_TIME ( #202, #69 ) ;
#99 = FACE_OUTER_BOUND ( 'NONE', #28, .T. ) ;
#100 = APPROVAL_DATE_TIME ( #155, #130 ) ;
#101 = EDGE_CURVE ( 'NONE', #225, #42, #195, .T. ) ;
#102 = ORIENTED_EDGE ( 'NONE', *, *, #212, .F. ) ;
#103 = DIRECTION ( 'NONE',  ( 0.0000000000000000000, -0.0000000000000000000, 1.000000000000000000 ) ) ;
#104 = APPROVAL_PERSON_ORGANIZATION ( #111, #10, #201 ) ;
#105 = AXIS2_PLACEMENT_3D ( 'NONE', #29, #146, #64 ) ;
#106 = DIRECTION ( 'NONE',  ( 0.0000000000000000000, 1.000000000000000000, 0.0000000000000000000 ) ) ;
#107 = SECURITY_CLASSIFICATION ( '', '', #205 ) ;
#108 = PLANE ( 'NONE',  #109 ) ;
#109 = AXIS2_PLACEMENT_3D ( 'NONE', #6, #85, #156 ) ;
#110 = LOCAL_TIME ( 9, 11, 42.00000000000000000, #207 ) ;
#111 = PERSON_AND_ORGANIZATION ( #227, #172 ) ;
#112 = ADVANCED_BREP_SHAPE_REPRESENTATION ( 'Web Model 64402MX_64403', ( #35, #133 ), #26 ) ;
#113 = DATE_AND_TIME ( #117, #110 ) ;
#114 = LINE ( 'NONE', #116, #151 ) ;
#115 = ORIENTED_EDGE ( 'NONE', *, *, #175, .F. ) ;
#116 = CARTESIAN_POINT ( 'NONE',  ( -12.50000000000000200, -12.50000000000000000, 4.750000000000000000 ) ) ;
#117 = CALENDAR_DATE ( 2017, 30, 10 ) ;
#118 = DIRECTION ( 'NONE',  ( -0.0000000000000000000, -1.000000000000000000, -0.0000000000000000000 ) ) ;
#119 = EDGE_LOOP ( 'NONE', ( #218, #17, #102, #132 ) ) ;
#120 = APPROVAL_STATUS ( 'not_yet_approved' ) ;
#121 = CARTESIAN_POINT ( 'NONE',  ( 12.49999999999999800, 12.50000000000000400, 4.750000000000000000 ) ) ;
#122 = COORDINATED_UNIVERSAL_TIME_OFFSET ( 5, 0, .BEHIND. ) ;
#123 = VECTOR ( 'NONE', #52, 1000.000000000000000 ) ;
#124 = ORIENTED_EDGE ( 'NONE', *, *, #2, .T. ) ;
#125 = PRODUCT ( 'Web Model 64402MX_64403', 'Web Model 64402MX_64403', '', ( #86 ) ) ;
#126 = CARTESIAN_POINT ( 'NONE',  ( 12.49999999999999800, -12.49999999999999600, 4.750000000000000000 ) ) ;
#127 = CARTESIAN_POINT ( 'NONE',  ( 12.49999999999999800, -12.49999999999999600, -4.750000000000000000 ) ) ;
#128 = LINE ( 'NONE', #144, #65 ) ;
#129 = ADVANCED_FACE ( 'NONE', ( #208 ), #108, .F. ) ;
#130 = APPROVAL ( #120, 'UNSPECIFIED' ) ;
#131 = LOCAL_TIME ( 9, 11, 42.00000000000000000, #220 ) ;
#132 = ORIENTED_EDGE ( 'NONE', *, *, #101, .T. ) ;
#133 = AXIS2_PLACEMENT_3D ( 'NONE', #50, #140, #75 ) ;
#134 = VECTOR ( 'NONE', #180, 1000.000000000000000 ) ;
#135 = EDGE_CURVE ( 'NONE', #209, #5, #178, .T. ) ;
#136 = PLANE ( 'NONE',  #56 ) ;
#137 = APPROVAL_ROLE ( '' ) ;
#138 = CC_DESIGN_APPROVAL ( #10, ( #18 ) ) ;
#139 = DATE_TIME_ROLE ( 'classification_date' ) ;
#140 = DIRECTION ( 'NONE',  ( 0.0000000000000000000, 0.0000000000000000000, 1.000000000000000000 ) ) ;
#141 = EDGE_CURVE ( 'NONE', #185, #209, #82, .T. ) ;
#142 = DIRECTION ( 'NONE',  ( 1.000000000000000000, 1.387778780781445700E-016, -0.0000000000000000000 ) ) ;
#143 = ORIENTED_EDGE ( 'NONE', *, *, #176, .F. ) ;
#144 = CARTESIAN_POINT ( 'NONE',  ( 12.49999999999999800, 12.50000000000000400, -4.750000000000000000 ) ) ;
#145 = CARTESIAN_POINT ( 'NONE',  ( 12.49999999999999800, -12.49999999999999600, 4.750000000000000000 ) ) ;
#146 = DIRECTION ( 'NONE',  ( 1.387778780781445700E-016, -1.000000000000000000, 0.0000000000000000000 ) ) ;
#147 = DIRECTION ( 'NONE',  ( -0.0000000000000000000, -0.0000000000000000000, -1.000000000000000000 ) ) ;
#148 = CC_DESIGN_APPROVAL ( #130, ( #154 ) ) ;
#149 = DIRECTION ( 'NONE',  ( 1.000000000000000000, 1.387778780781445700E-016, -0.0000000000000000000 ) ) ;
#150 = DATE_AND_TIME ( #229, #231 ) ;
#151 = VECTOR ( 'NONE', #118, 1000.000000000000000 ) ;
#152 = ORIENTED_EDGE ( 'NONE', *, *, #226, .F. ) ;
#153 = ORIENTED_EDGE ( 'NONE', *, *, #175, .T. ) ;
#154 = PRODUCT_DEFINITION ( 'UNKNOWN', '', #18, #74 ) ;
#155 = DATE_AND_TIME ( #213, #184 ) ;
#156 = DIRECTION ( 'NONE',  ( 0.0000000000000000000, 0.0000000000000000000, 1.000000000000000000 ) ) ;
#157 = SHAPE_DEFINITION_REPRESENTATION ( #221, #112 ) ;
#158 = LINE ( 'NONE', #169, #96 ) ;
#159 = ORIENTED_EDGE ( 'NONE', *, *, #160, .F. ) ;
#160 = EDGE_CURVE ( 'NONE', #185, #48, #114, .T. ) ;
#161 = PERSON_AND_ORGANIZATION ( #227, #172 ) ;
#162 = CARTESIAN_POINT ( 'NONE',  ( 0.0000000000000000000, 0.0000000000000000000, 4.750000000000000000 ) ) ;
#163 = APPLICATION_PROTOCOL_DEFINITION ( 'international standard', 'config_control_design', 1994, #62 ) ;
#164 = EDGE_LOOP ( 'NONE', ( #124, #152, #81, #190 ) ) ;
#165 = EDGE_LOOP ( 'NONE', ( #77, #198, #115, #76 ) ) ;
#166 = CARTESIAN_POINT ( 'NONE',  ( -12.50000000000000200, -12.50000000000000000, -4.750000000000000000 ) ) ;
#167 = DIRECTION ( 'NONE',  ( -1.387778780781445700E-016, 1.000000000000000000, 0.0000000000000000000 ) ) ;
#168 = CC_DESIGN_PERSON_AND_ORGANIZATION_ASSIGNMENT ( #174, #90, ( #107 ) ) ;
#169 = CARTESIAN_POINT ( 'NONE',  ( 12.49999999999999800, -12.49999999999999600, -4.750000000000000000 ) ) ;
#170 = CARTESIAN_POINT ( 'NONE',  ( 12.49999999999999800, 12.50000000000000400, 4.750000000000000000 ) ) ;
#171 = ADVANCED_FACE ( 'NONE', ( #99 ), #136, .T. ) ;
#172 = ORGANIZATION ( 'UNSPECIFIED', 'UNSPECIFIED', '' ) ;
#173 = VECTOR ( 'NONE', #94, 1000.000000000000000 ) ;
#174 = PERSON_AND_ORGANIZATION ( #227, #172 ) ;
#175 = EDGE_CURVE ( 'NONE', #33, #225, #187, .T. ) ;
#176 = EDGE_CURVE ( 'NONE', #48, #5, #1, .T. ) ;
#177 = DATE_AND_TIME ( #19, #131 ) ;
#178 = LINE ( 'NONE', #31, #123 ) ;
#179 = EDGE_LOOP ( 'NONE', ( #191, #47, #236, #84 ) ) ;
#180 = DIRECTION ( 'NONE',  ( -0.0000000000000000000, -0.0000000000000000000, -1.000000000000000000 ) ) ;
#181 = APPLICATION_PROTOCOL_DEFINITION ( 'international standard', 'config_control_design', 1994, #222 ) ;
#182 = CARTESIAN_POINT ( 'NONE',  ( -12.50000000000000200, 12.50000000000000000, 4.750000000000000000 ) ) ;
#183 = CARTESIAN_POINT ( 'NONE',  ( -12.50000000000000200, -12.50000000000000000, 4.750000000000000000 ) ) ;
#184 = LOCAL_TIME ( 9, 11, 42.00000000000000000, #122 ) ;
#185 = VERTEX_POINT ( 'NONE', #182 ) ;
#186 = CC_DESIGN_PERSON_AND_ORGANIZATION_ASSIGNMENT ( #14, #43, ( #125 ) ) ;
#187 = LINE ( 'NONE', #203, #20 ) ;
#188 = ADVANCED_FACE ( 'NONE', ( #224 ), #197, .F. ) ;
#189 = AXIS2_PLACEMENT_3D ( 'NONE', #206, #37, #91 ) ;
#190 = ORIENTED_EDGE ( 'NONE', *, *, #176, .T. ) ;
#191 = ORIENTED_EDGE ( 'NONE', *, *, #135, .F. ) ;
#192 = ORIENTED_EDGE ( 'NONE', *, *, #160, .T. ) ;
#193 = CARTESIAN_POINT ( 'NONE',  ( -12.50000000000000200, 12.50000000000000000, 4.750000000000000000 ) ) ;
#194 = APPROVAL_DATE_TIME ( #150, #10 ) ;
#195 = LINE ( 'NONE', #121, #70 ) ;
#196 = CC_DESIGN_DATE_AND_TIME_ASSIGNMENT ( #177, #73, ( #154 ) ) ;
#197 = PLANE ( 'NONE',  #46 ) ;
#198 = ORIENTED_EDGE ( 'NONE', *, *, #101, .F. ) ;
#199 = ORIENTED_EDGE ( 'NONE', *, *, #83, .T. ) ;
#200 = PLANE ( 'NONE',  #234 ) ;
#201 = APPROVAL_ROLE ( '' ) ;
#202 = CALENDAR_DATE ( 2017, 30, 10 ) ;
#203 = CARTESIAN_POINT ( 'NONE',  ( 12.49999999999999800, -12.49999999999999600, 4.750000000000000000 ) ) ;
#204 = FACE_OUTER_BOUND ( 'NONE', #179, .T. ) ;
#205 = SECURITY_CLASSIFICATION_LEVEL ( 'unclassified' ) ;
#206 = CARTESIAN_POINT ( 'NONE',  ( 0.0000000000000000000, 0.0000000000000000000, -4.750000000000000000 ) ) ;
#207 = COORDINATED_UNIVERSAL_TIME_OFFSET ( 5, 0, .BEHIND. ) ;
#208 = FACE_OUTER_BOUND ( 'NONE', #165, .T. ) ;
#209 = VERTEX_POINT ( 'NONE', #45 ) ;
#210 = CARTESIAN_POINT ( 'NONE',  ( 12.49999999999999800, 12.50000000000000400, 4.750000000000000000 ) ) ;
#211 =( NAMED_UNIT ( * ) PLANE_ANGLE_UNIT ( ) SI_UNIT ( $, .RADIAN. ) );
#212 = EDGE_CURVE ( 'NONE', #225, #185, #89, .T. ) ;
#213 = CALENDAR_DATE ( 2017, 30, 10 ) ;
#214 = VECTOR ( 'NONE', #147, 1000.000000000000000 ) ;
#215 = CC_DESIGN_PERSON_AND_ORGANIZATION_ASSIGNMENT ( #87, #4, ( #18 ) ) ;
#216 = APPROVAL_PERSON_ORGANIZATION ( #161, #230, #40 ) ;
#217 = PERSON_AND_ORGANIZATION ( #227, #172 ) ;
#218 = ORIENTED_EDGE ( 'NONE', *, *, #30, .T. ) ;
#219 = CARTESIAN_POINT ( 'NONE',  ( -12.50000000000000200, -12.50000000000000000, 4.750000000000000000 ) ) ;
#220 = COORDINATED_UNIVERSAL_TIME_OFFSET ( 5, 0, .BEHIND. ) ;
#221 = PRODUCT_DEFINITION_SHAPE ( 'NONE', 'NONE',  #154 ) ;
#222 = APPLICATION_CONTEXT ( 'configuration controlled 3d designs of mechanical parts and assemblies' ) ;
#223 = DIRECTION ( 'NONE',  ( 1.000000000000000000, 0.0000000000000000000, 0.0000000000000000000 ) ) ;
#224 = FACE_OUTER_BOUND ( 'NONE', #164, .T. ) ;
#225 = VERTEX_POINT ( 'NONE', #170 ) ;
#226 = EDGE_CURVE ( 'NONE', #33, #237, #27, .T. ) ;
#227 = PERSON ( 'UNSPECIFIED', 'UNSPECIFIED', 'UNSPECIFIED', ('UNSPECIFIED'), ('UNSPECIFIED'), ('UNSPECIFIED') ) ;
#228 = CARTESIAN_POINT ( 'NONE',  ( 12.49999999999999800, -12.49999999999999600, 4.750000000000000000 ) ) ;
#229 = CALENDAR_DATE ( 2017, 30, 10 ) ;
#230 = APPROVAL ( #59, 'UNSPECIFIED' ) ;
#231 = LOCAL_TIME ( 9, 11, 42.00000000000000000, #16 ) ;
#232 = LINE ( 'NONE', #126, #72 ) ;
#233 = CLOSED_SHELL ( 'NONE', ( #93, #188, #129, #11, #171, #51 ) ) ;
#234 = AXIS2_PLACEMENT_3D ( 'NONE', #183, #223, #88 ) ;
#235 = FACE_OUTER_BOUND ( 'NONE', #119, .T. ) ;
#236 = ORIENTED_EDGE ( 'NONE', *, *, #34, .F. ) ;
#237 = VERTEX_POINT ( 'NONE', #66 ) ;
ENDSEC;
END-ISO-10303-21;
