ISO-10303-21;
HEADER;
FILE_DESCRIPTION (( 'STEP AP203' ),
    '1' );
FILE_NAME ('Web Model 46162_46162.step',
    '2017-04-19T19:15:21',
    ( '' ),
    ( '' ),
    'SwSTEP 2.0',
    'SolidWorks 2016',
    '' );
FILE_SCHEMA (( 'CONFIG_CONTROL_DESIGN' ));
ENDSEC;

DATA;
#1 = ORIENTED_EDGE ( 'NONE', *, *, #35, .F. ) ;
#2 = COORDINATED_UNIVERSAL_TIME_OFFSET ( 5, 0, .BEHIND. ) ;
#3 = APPROVAL_ROLE ( '' ) ;
#4 = AXIS2_PLACEMENT_3D ( 'NONE', #174, #117, #164 ) ;
#5 = PERSON_AND_ORGANIZATION ( #113, #88 ) ;
#6 = LOCAL_TIME ( 15, 15, 21.00000000000000000, #25 ) ;
#7 = ORIENTED_EDGE ( 'NONE', *, *, #135, .T. ) ;
#8 = APPROVAL_ROLE ( '' ) ;
#9 = APPROVAL_DATE_TIME ( #109, #89 ) ;
#10 = EDGE_CURVE ( 'NONE', #71, #132, #80, .T. ) ;
#11 = DATE_AND_TIME ( #93, #32 ) ;
#12 = CIRCLE ( 'NONE', #171, 2.499999999999998700 ) ;
#13 = APPROVAL_STATUS ( 'not_yet_approved' ) ;
#14 = SECURITY_CLASSIFICATION ( '', '', #91 ) ;
#15 = DIRECTION ( 'NONE',  ( 0.0000000000000000000, 0.0000000000000000000, 1.000000000000000000 ) ) ;
#16 = APPROVAL ( #52, 'UNSPECIFIED' ) ;
#17 = CC_DESIGN_PERSON_AND_ORGANIZATION_ASSIGNMENT ( #136, #83, ( #39 ) ) ;
#18 = ORIENTED_EDGE ( 'NONE', *, *, #135, .F. ) ;
#19 = DIRECTION ( 'NONE',  ( 1.000000000000000000, 0.0000000000000000000, -0.0000000000000000000 ) ) ;
#20 = EDGE_CURVE ( 'NONE', #152, #170, #12, .T. ) ;
#21 = CALENDAR_DATE ( 2017, 19, 4 ) ;
#22 = PERSON_AND_ORGANIZATION ( #113, #88 ) ;
#23 = CIRCLE ( 'NONE', #142, 2.499999999999998700 ) ;
#24 = CC_DESIGN_DATE_AND_TIME_ASSIGNMENT ( #28, #111, ( #51 ) ) ;
#25 = COORDINATED_UNIVERSAL_TIME_OFFSET ( 5, 0, .BEHIND. ) ;
#26 = SHAPE_DEFINITION_REPRESENTATION ( #147, #155 ) ;
#27 = PERSON_AND_ORGANIZATION_ROLE ( 'design_owner' ) ;
#28 = DATE_AND_TIME ( #154, #49 ) ;
#29 = ORIENTED_EDGE ( 'NONE', *, *, #35, .T. ) ;
#30 = COORDINATED_UNIVERSAL_TIME_OFFSET ( 5, 0, .BEHIND. ) ;
#31 = CC_DESIGN_PERSON_AND_ORGANIZATION_ASSIGNMENT ( #82, #67, ( #39 ) ) ;
#32 = LOCAL_TIME ( 15, 15, 21.00000000000000000, #138 ) ;
#33 = ORIENTED_EDGE ( 'NONE', *, *, #10, .F. ) ;
#34 = APPLICATION_PROTOCOL_DEFINITION ( 'international standard', 'config_control_design', 1994, #167 ) ;
#35 = EDGE_CURVE ( 'NONE', #71, #152, #110, .T. ) ;
#36 = MANIFOLD_SOLID_BREP ( 'Boss-Extrude1', #97 ) ;
#37 = PERSON_AND_ORGANIZATION_ROLE ( 'classification_officer' ) ;
#38 = DIRECTION ( 'NONE',  ( 1.000000000000000000, 0.0000000000000000000, 0.0000000000000000000 ) ) ;
#39 = PRODUCT_DEFINITION_FORMATION_WITH_SPECIFIED_SOURCE ( 'ANY', '', #129, .NOT_KNOWN. ) ;
#40 = DIRECTION ( 'NONE',  ( 0.0000000000000000000, 0.0000000000000000000, 1.000000000000000000 ) ) ;
#41 = DIRECTION ( 'NONE',  ( 0.0000000000000000000, 0.0000000000000000000, 1.000000000000000000 ) ) ;
#42 = EDGE_LOOP ( 'NONE', ( #33, #29, #124, #106 ) ) ;
#43 = UNCERTAINTY_MEASURE_WITH_UNIT (LENGTH_MEASURE( 1.000000000000000100E-005 ), #169, 'distance_accuracy_value', 'NONE');
#44 = CC_DESIGN_PERSON_AND_ORGANIZATION_ASSIGNMENT ( #126, #27, ( #129 ) ) ;
#45 = LOCAL_TIME ( 15, 15, 21.00000000000000000, #2 ) ;
#46 = DIRECTION ( 'NONE',  ( -1.000000000000000000, 0.0000000000000000000, 0.0000000000000000000 ) ) ;
#47 = LINE ( 'NONE', #162, #69 ) ;
#48 = CC_DESIGN_PERSON_AND_ORGANIZATION_ASSIGNMENT ( #151, #122, ( #51 ) ) ;
#49 = LOCAL_TIME ( 15, 15, 21.00000000000000000, #163 ) ;
#50 = FACE_OUTER_BOUND ( 'NONE', #65, .T. ) ;
#51 = PRODUCT_DEFINITION ( 'UNKNOWN', '', #39, #59 ) ;
#52 = APPROVAL_STATUS ( 'not_yet_approved' ) ;
#53 = CIRCLE ( 'NONE', #114, 2.499999999999998700 ) ;
#54 = ADVANCED_FACE ( 'NONE', ( #140 ), #107, .T. ) ;
#55 = APPROVAL_DATE_TIME ( #86, #16 ) ;
#56 = APPROVAL ( #63, 'UNSPECIFIED' ) ;
#57 = FACE_OUTER_BOUND ( 'NONE', #42, .T. ) ;
#58 = CARTESIAN_POINT ( 'NONE',  ( 2.499999999999998700, 3.061616997868381700E-016, 2.500000000000000000 ) ) ;
#59 = DESIGN_CONTEXT ( 'detailed design', #61, 'design' ) ;
#60 = AXIS2_PLACEMENT_3D ( 'NONE', #100, #141, #46 ) ;
#61 = APPLICATION_CONTEXT ( 'configuration controlled 3d designs of mechanical parts and assemblies' ) ;
#62 = DIRECTION ( 'NONE',  ( 0.0000000000000000000, 0.0000000000000000000, 1.000000000000000000 ) ) ;
#63 = APPROVAL_STATUS ( 'not_yet_approved' ) ;
#64 = CC_DESIGN_APPROVAL ( #16, ( #51 ) ) ;
#65 = EDGE_LOOP ( 'NONE', ( #1, #18, #148, #90 ) ) ;
#66 = APPROVAL_PERSON_ORGANIZATION ( #5, #56, #8 ) ;
#67 = PERSON_AND_ORGANIZATION_ROLE ( 'design_supplier' ) ;
#68 = CC_DESIGN_APPROVAL ( #56, ( #39 ) ) ;
#69 = VECTOR ( 'NONE', #125, 1000.000000000000000 ) ;
#70 = CALENDAR_DATE ( 2017, 19, 4 ) ;
#71 = VERTEX_POINT ( 'NONE', #115 ) ;
#72 = ADVANCED_FACE ( 'NONE', ( #103 ), #153, .F. ) ;
#73 = DATE_TIME_ROLE ( 'classification_date' ) ;
#74 = APPLICATION_PROTOCOL_DEFINITION ( 'international standard', 'config_control_design', 1994, #61 ) ;
#75 = CC_DESIGN_PERSON_AND_ORGANIZATION_ASSIGNMENT ( #22, #37, ( #14 ) ) ;
#76 = LOCAL_TIME ( 15, 15, 21.00000000000000000, #30 ) ;
#77 = CARTESIAN_POINT ( 'NONE',  ( -2.499999999999998700, 0.0000000000000000000, 2.500000000000000000 ) ) ;
#78 = CARTESIAN_POINT ( 'NONE',  ( -2.499999999999998700, 0.0000000000000000000, 0.0000000000000000000 ) ) ;
#79 = CARTESIAN_POINT ( 'NONE',  ( 0.0000000000000000000, 0.0000000000000000000, 0.0000000000000000000 ) ) ;
#80 = CIRCLE ( 'NONE', #131, 2.499999999999998700 ) ;
#81 = APPROVAL_PERSON_ORGANIZATION ( #150, #16, #127 ) ;
#82 = PERSON_AND_ORGANIZATION ( #113, #88 ) ;
#83 = PERSON_AND_ORGANIZATION_ROLE ( 'creator' ) ;
#84 = DIRECTION ( 'NONE',  ( 0.0000000000000000000, 0.0000000000000000000, 1.000000000000000000 ) ) ;
#85 = AXIS2_PLACEMENT_3D ( 'NONE', #79, #41, #38 ) ;
#86 = DATE_AND_TIME ( #95, #6 ) ;
#87 =( NAMED_UNIT ( * ) SI_UNIT ( $, .STERADIAN. ) SOLID_ANGLE_UNIT ( ) );
#88 = ORGANIZATION ( 'UNSPECIFIED', 'UNSPECIFIED', '' ) ;
#89 = APPROVAL ( #13, 'UNSPECIFIED' ) ;
#90 = ORIENTED_EDGE ( 'NONE', *, *, #99, .T. ) ;
#91 = SECURITY_CLASSIFICATION_LEVEL ( 'unclassified' ) ;
#92 = AXIS2_PLACEMENT_3D ( 'NONE', #172, #112, #175 ) ;
#93 = CALENDAR_DATE ( 2017, 19, 4 ) ;
#94 = APPROVAL_PERSON_ORGANIZATION ( #157, #89, #3 ) ;
#95 = CALENDAR_DATE ( 2017, 19, 4 ) ;
#96 = CARTESIAN_POINT ( 'NONE',  ( 2.499999999999998700, 3.061616997868381700E-016, 0.0000000000000000000 ) ) ;
#97 = CLOSED_SHELL ( 'NONE', ( #146, #119, #54, #72 ) ) ;
#98 = DATE_AND_TIME ( #70, #76 ) ;
#99 = EDGE_CURVE ( 'NONE', #170, #152, #23, .T. ) ;
#100 = CARTESIAN_POINT ( 'NONE',  ( 0.0000000000000000000, 0.0000000000000000000, 2.500000000000000000 ) ) ;
#101 = CC_DESIGN_DATE_AND_TIME_ASSIGNMENT ( #98, #73, ( #14 ) ) ;
#102 = CARTESIAN_POINT ( 'NONE',  ( 0.0000000000000000000, 0.0000000000000000000, 0.0000000000000000000 ) ) ;
#103 = FACE_OUTER_BOUND ( 'NONE', #159, .T. ) ;
#104 = CYLINDRICAL_SURFACE ( 'NONE', #4, 2.499999999999998700 ) ;
#105 = EDGE_LOOP ( 'NONE', ( #7, #121 ) ) ;
#106 = ORIENTED_EDGE ( 'NONE', *, *, #149, .F. ) ;
#107 = PLANE ( 'NONE',  #92 ) ;
#108 = CC_DESIGN_SECURITY_CLASSIFICATION ( #14, ( #39 ) ) ;
#109 = DATE_AND_TIME ( #21, #45 ) ;
#110 = LINE ( 'NONE', #58, #165 ) ;
#111 = DATE_TIME_ROLE ( 'creation_date' ) ;
#112 = DIRECTION ( 'NONE',  ( 0.0000000000000000000, 0.0000000000000000000, 1.000000000000000000 ) ) ;
#113 = PERSON ( 'UNSPECIFIED', 'UNSPECIFIED', 'UNSPECIFIED', ('UNSPECIFIED'), ('UNSPECIFIED'), ('UNSPECIFIED') ) ;
#114 = AXIS2_PLACEMENT_3D ( 'NONE', #161, #15, #123 ) ;
#115 = CARTESIAN_POINT ( 'NONE',  ( 2.499999999999998700, 3.061616997868381700E-016, 2.500000000000000000 ) ) ;
#116 = CC_DESIGN_APPROVAL ( #89, ( #14 ) ) ;
#117 = DIRECTION ( 'NONE',  ( -0.0000000000000000000, -0.0000000000000000000, -1.000000000000000000 ) ) ;
#118 = ORIENTED_EDGE ( 'NONE', *, *, #20, .F. ) ;
#119 = ADVANCED_FACE ( 'NONE', ( #50 ), #104, .T. ) ;
#120 = AXIS2_PLACEMENT_3D ( 'NONE', #144, #40, #19 ) ;
#121 = ORIENTED_EDGE ( 'NONE', *, *, #10, .T. ) ;
#122 = PERSON_AND_ORGANIZATION_ROLE ( 'creator' ) ;
#123 = DIRECTION ( 'NONE',  ( 1.000000000000000000, 0.0000000000000000000, 0.0000000000000000000 ) ) ;
#124 = ORIENTED_EDGE ( 'NONE', *, *, #20, .T. ) ;
#125 = DIRECTION ( 'NONE',  ( -0.0000000000000000000, -0.0000000000000000000, -1.000000000000000000 ) ) ;
#126 = PERSON_AND_ORGANIZATION ( #113, #88 ) ;
#127 = APPROVAL_ROLE ( '' ) ;
#128 = CYLINDRICAL_SURFACE ( 'NONE', #60, 2.499999999999998700 ) ;
#129 = PRODUCT ( 'Web Model 46162_46162', 'Web Model 46162_46162', '', ( #145 ) ) ;
#130 = DIRECTION ( 'NONE',  ( 1.000000000000000000, 0.0000000000000000000, 0.0000000000000000000 ) ) ;
#131 = AXIS2_PLACEMENT_3D ( 'NONE', #158, #84, #133 ) ;
#132 = VERTEX_POINT ( 'NONE', #77 ) ;
#133 = DIRECTION ( 'NONE',  ( 1.000000000000000000, 0.0000000000000000000, 0.0000000000000000000 ) ) ;
#134 = DIRECTION ( 'NONE',  ( -0.0000000000000000000, -0.0000000000000000000, -1.000000000000000000 ) ) ;
#135 = EDGE_CURVE ( 'NONE', #132, #71, #53, .T. ) ;
#136 = PERSON_AND_ORGANIZATION ( #113, #88 ) ;
#137 = PRODUCT_RELATED_PRODUCT_CATEGORY ( 'detail', '', ( #129 ) ) ;
#138 = COORDINATED_UNIVERSAL_TIME_OFFSET ( 5, 0, .BEHIND. ) ;
#139 = CARTESIAN_POINT ( 'NONE',  ( 0.0000000000000000000, 0.0000000000000000000, 0.0000000000000000000 ) ) ;
#140 = FACE_OUTER_BOUND ( 'NONE', #105, .T. ) ;
#141 = DIRECTION ( 'NONE',  ( -0.0000000000000000000, -0.0000000000000000000, -1.000000000000000000 ) ) ;
#142 = AXIS2_PLACEMENT_3D ( 'NONE', #102, #62, #130 ) ;
#143 = DIRECTION ( 'NONE',  ( 0.0000000000000000000, 0.0000000000000000000, 1.000000000000000000 ) ) ;
#144 = CARTESIAN_POINT ( 'NONE',  ( 0.0000000000000000000, 0.0000000000000000000, 0.0000000000000000000 ) ) ;
#145 = MECHANICAL_CONTEXT ( 'NONE', #167, 'mechanical' ) ;
#146 = ADVANCED_FACE ( 'NONE', ( #57 ), #128, .T. ) ;
#147 = PRODUCT_DEFINITION_SHAPE ( 'NONE', 'NONE',  #51 ) ;
#148 = ORIENTED_EDGE ( 'NONE', *, *, #149, .T. ) ;
#149 = EDGE_CURVE ( 'NONE', #132, #170, #47, .T. ) ;
#150 = PERSON_AND_ORGANIZATION ( #113, #88 ) ;
#151 = PERSON_AND_ORGANIZATION ( #113, #88 ) ;
#152 = VERTEX_POINT ( 'NONE', #96 ) ;
#153 = PLANE ( 'NONE',  #120 ) ;
#154 = CALENDAR_DATE ( 2017, 19, 4 ) ;
#155 = ADVANCED_BREP_SHAPE_REPRESENTATION ( 'Web Model 46162_46162', ( #36, #85 ), #166 ) ;
#156 = ORIENTED_EDGE ( 'NONE', *, *, #99, .F. ) ;
#157 = PERSON_AND_ORGANIZATION ( #113, #88 ) ;
#158 = CARTESIAN_POINT ( 'NONE',  ( 0.0000000000000000000, 0.0000000000000000000, 2.500000000000000000 ) ) ;
#159 = EDGE_LOOP ( 'NONE', ( #156, #118 ) ) ;
#160 = APPROVAL_DATE_TIME ( #11, #56 ) ;
#161 = CARTESIAN_POINT ( 'NONE',  ( 0.0000000000000000000, 0.0000000000000000000, 2.500000000000000000 ) ) ;
#162 = CARTESIAN_POINT ( 'NONE',  ( -2.499999999999998700, 0.0000000000000000000, 2.500000000000000000 ) ) ;
#163 = COORDINATED_UNIVERSAL_TIME_OFFSET ( 5, 0, .BEHIND. ) ;
#164 = DIRECTION ( 'NONE',  ( -1.000000000000000000, 0.0000000000000000000, 0.0000000000000000000 ) ) ;
#165 = VECTOR ( 'NONE', #134, 1000.000000000000000 ) ;
#166 =( GEOMETRIC_REPRESENTATION_CONTEXT ( 3 ) GLOBAL_UNCERTAINTY_ASSIGNED_CONTEXT ( ( #43 ) ) GLOBAL_UNIT_ASSIGNED_CONTEXT ( ( #169, #173, #87 ) ) REPRESENTATION_CONTEXT ( 'NONE', 'WORKASPACE' ) );
#167 = APPLICATION_CONTEXT ( 'configuration controlled 3d designs of mechanical parts and assemblies' ) ;
#168 = DIRECTION ( 'NONE',  ( 1.000000000000000000, 0.0000000000000000000, 0.0000000000000000000 ) ) ;
#169 =( LENGTH_UNIT ( ) NAMED_UNIT ( * ) SI_UNIT ( .MILLI., .METRE. ) );
#170 = VERTEX_POINT ( 'NONE', #78 ) ;
#171 = AXIS2_PLACEMENT_3D ( 'NONE', #139, #143, #168 ) ;
#172 = CARTESIAN_POINT ( 'NONE',  ( 0.0000000000000000000, 0.0000000000000000000, 2.500000000000000000 ) ) ;
#173 =( NAMED_UNIT ( * ) PLANE_ANGLE_UNIT ( ) SI_UNIT ( $, .RADIAN. ) );
#174 = CARTESIAN_POINT ( 'NONE',  ( 0.0000000000000000000, 0.0000000000000000000, 2.500000000000000000 ) ) ;
#175 = DIRECTION ( 'NONE',  ( 1.000000000000000000, 0.0000000000000000000, -0.0000000000000000000 ) ) ;
ENDSEC;
END-ISO-10303-21;
