ISO-10303-21;
HEADER;
FILE_DESCRIPTION (( 'STEP AP203' ),
    '1' );
FILE_NAME ('step_49870.step',
    '2014-06-05T18:40:18',
    ( '' ),
    ( '' ),
    'SwSTEP 2.0',
    'SolidWorks 2014',
    '' );
FILE_SCHEMA (( 'CONFIG_CONTROL_DESIGN' ));
ENDSEC;

DATA;
#1 = CC_DESIGN_APPROVAL ( #4, ( #18 ) ) ;
#2 = CARTESIAN_POINT ( 'NONE',  ( 10.00000000000000200, -5.306039724263175300E-015, 10.00000000000000000 ) ) ;
#3 = DATE_AND_TIME ( #138, #214 ) ;
#4 = APPROVAL ( #264, 'UNSPECIFIED' ) ;
#5 = DIRECTION ( 'NONE',  ( -1.000000000000000000, 0.0000000000000000000, 0.0000000000000000000 ) ) ;
#6 = LINE ( 'NONE', #177, #118 ) ;
#7 = CC_DESIGN_DATE_AND_TIME_ASSIGNMENT ( #241, #120, ( #18 ) ) ;
#8 = ORIENTED_EDGE ( 'NONE', *, *, #100, .T. ) ;
#9 = VERTEX_POINT ( 'NONE', #285 ) ;
#10 = PRODUCT_RELATED_PRODUCT_CATEGORY ( 'detail', '', ( #114 ) ) ;
#11 = CC_DESIGN_PERSON_AND_ORGANIZATION_ASSIGNMENT ( #161, #257, ( #18 ) ) ;
#12 = CLOSED_SHELL ( 'NONE', ( #70, #293, #311, #157, #210 ) ) ;
#13 = ORIENTED_EDGE ( 'NONE', *, *, #276, .T. ) ;
#14 = FACE_OUTER_BOUND ( 'NONE', #259, .T. ) ;
#15 = CARTESIAN_POINT ( 'NONE',  ( 10.00000000000000200, 10.00000000000000200, 10.00000000000000000 ) ) ;
#16 = LOCAL_TIME ( 11, 40, 18.00000000000000000, #94 ) ;
#17 = VERTEX_POINT ( 'NONE', #221 ) ;
#18 = SECURITY_CLASSIFICATION ( '', '', #168 ) ;
#19 = LINE ( 'NONE', #151, #178 ) ;
#20 = CC_DESIGN_PERSON_AND_ORGANIZATION_ASSIGNMENT ( #158, #156, ( #39 ) ) ;
#21 = DATE_AND_TIME ( #267, #90 ) ;
#22 = DIRECTION ( 'NONE',  ( 1.000000000000000000, -5.306039724263174900E-016, -0.0000000000000000000 ) ) ;
#23 = ORIENTED_EDGE ( 'NONE', *, *, #298, .T. ) ;
#24 = DIRECTION ( 'NONE',  ( -0.0000000000000000000, -0.0000000000000000000, -1.000000000000000000 ) ) ;
#25 = CC_DESIGN_PERSON_AND_ORGANIZATION_ASSIGNMENT ( #71, #101, ( #39 ) ) ;
#26 = CLOSED_SHELL ( 'NONE', ( #38, #274, #228, #96, #185 ) ) ;
#27 = VECTOR ( 'NONE', #191, 1000.000000000000000 ) ;
#28 = VERTEX_POINT ( 'NONE', #246 ) ;
#29 = VECTOR ( 'NONE', #316, 1000.000000000000000 ) ;
#30 = CC_DESIGN_APPROVAL ( #37, ( #39 ) ) ;
#31 = LINE ( 'NONE', #133, #56 ) ;
#32 = APPROVAL_STATUS ( 'not_yet_approved' ) ;
#33 =( LENGTH_UNIT ( ) NAMED_UNIT ( * ) SI_UNIT ( .MILLI., .METRE. ) );
#34 = ORIENTED_EDGE ( 'NONE', *, *, #172, .F. ) ;
#35 = CARTESIAN_POINT ( 'NONE',  ( 10.00000000000000200, 10.00000000000000200, 0.0000000000000000000 ) ) ;
#36 = VERTEX_POINT ( 'NONE', #240 ) ;
#37 = APPROVAL ( #32, 'UNSPECIFIED' ) ;
#38 = ADVANCED_FACE ( 'NONE', ( #194 ), #171, .F. ) ;
#39 = PRODUCT_DEFINITION_FORMATION_WITH_SPECIFIED_SOURCE ( 'ANY', '', #114, .NOT_KNOWN. ) ;
#40 = LINE ( 'NONE', #77, #91 ) ;
#41 = DIRECTION ( 'NONE',  ( 0.0000000000000000000, 0.0000000000000000000, 1.000000000000000000 ) ) ;
#42 = UNCERTAINTY_MEASURE_WITH_UNIT (LENGTH_MEASURE( 1.000000000000000100E-005 ), #33, 'distance_accuracy_value', 'NONE');
#43 = PERSON_AND_ORGANIZATION ( #174, #47 ) ;
#44 = DIRECTION ( 'NONE',  ( 0.7071067811865474600, 0.7071067811865474600, 0.0000000000000000000 ) ) ;
#45 = CC_DESIGN_DATE_AND_TIME_ASSIGNMENT ( #301, #243, ( #68 ) ) ;
#46 = ORIENTED_EDGE ( 'NONE', *, *, #273, .F. ) ;
#47 = ORGANIZATION ( 'UNSPECIFIED', 'UNSPECIFIED', '' ) ;
#48 = LINE ( 'NONE', #92, #255 ) ;
#49 = LINE ( 'NONE', #317, #29 ) ;
#50 = DIRECTION ( 'NONE',  ( 0.7071067811865475700, -0.7071067811865475700, 0.0000000000000000000 ) ) ;
#51 =( NAMED_UNIT ( * ) PLANE_ANGLE_UNIT ( ) SI_UNIT ( $, .RADIAN. ) );
#52 = CC_DESIGN_PERSON_AND_ORGANIZATION_ASSIGNMENT ( #43, #309, ( #68 ) ) ;
#53 = VERTEX_POINT ( 'NONE', #233 ) ;
#54 = CARTESIAN_POINT ( 'NONE',  ( 0.0000000000000000000, 0.0000000000000000000, 10.00000000000000000 ) ) ;
#55 = CARTESIAN_POINT ( 'NONE',  ( 0.0000000000000000000, 0.0000000000000000000, 0.0000000000000000000 ) ) ;
#56 = VECTOR ( 'NONE', #121, 1000.000000000000000 ) ;
#57 = CARTESIAN_POINT ( 'NONE',  ( 0.0000000000000000000, 0.0000000000000000000, 10.00000000000000000 ) ) ;
#58 = DIRECTION ( 'NONE',  ( 1.000000000000000000, 0.0000000000000000000, 0.0000000000000000000 ) ) ;
#59 = CC_DESIGN_APPROVAL ( #63, ( #68 ) ) ;
#60 = DIRECTION ( 'NONE',  ( -0.0000000000000000000, 1.000000000000000000, -0.0000000000000000000 ) ) ;
#61 = PLANE ( 'NONE',  #104 ) ;
#62 = VERTEX_POINT ( 'NONE', #160 ) ;
#63 = APPROVAL ( #135, 'UNSPECIFIED' ) ;
#64 = DIRECTION ( 'NONE',  ( 0.0000000000000000000, 0.0000000000000000000, -1.000000000000000000 ) ) ;
#65 = LINE ( 'NONE', #206, #130 ) ;
#66 = DIRECTION ( 'NONE',  ( -0.0000000000000000000, -1.000000000000000000, -0.0000000000000000000 ) ) ;
#67 = ORIENTED_EDGE ( 'NONE', *, *, #298, .F. ) ;
#68 = PRODUCT_DEFINITION ( 'UNKNOWN', '', #39, #263 ) ;
#69 = APPROVAL_DATE_TIME ( #3, #63 ) ;
#70 = ADVANCED_FACE ( 'NONE', ( #217 ), #115, .F. ) ;
#71 = PERSON_AND_ORGANIZATION ( #174, #47 ) ;
#72 = LINE ( 'NONE', #103, #128 ) ;
#73 = CC_DESIGN_PERSON_AND_ORGANIZATION_ASSIGNMENT ( #239, #82, ( #114 ) ) ;
#74 = DIRECTION ( 'NONE',  ( -0.7071067811865474600, -0.7071067811865474600, -0.0000000000000000000 ) ) ;
#75 = ORIENTED_EDGE ( 'NONE', *, *, #271, .T. ) ;
#76 = ORIENTED_EDGE ( 'NONE', *, *, #187, .T. ) ;
#77 = CARTESIAN_POINT ( 'NONE',  ( 0.0000000000000000000, 0.0000000000000000000, 0.0000000000000000000 ) ) ;
#78 = DIRECTION ( 'NONE',  ( -1.000000000000000000, 5.306039724263174900E-016, 0.0000000000000000000 ) ) ;
#79 = AXIS2_PLACEMENT_3D ( 'NONE', #55, #41, #58 ) ;
#80 = ORIENTED_EDGE ( 'NONE', *, *, #279, .F. ) ;
#81 = SHAPE_DEFINITION_REPRESENTATION ( #123, #308 ) ;
#82 = PERSON_AND_ORGANIZATION_ROLE ( 'design_owner' ) ;
#83 = DIRECTION ( 'NONE',  ( -0.7071067811865474600, -0.7071067811865474600, -0.0000000000000000000 ) ) ;
#84 = DIRECTION ( 'NONE',  ( -0.0000000000000000000, -1.000000000000000000, -0.0000000000000000000 ) ) ;
#85 = EDGE_CURVE ( 'NONE', #268, #36, #97, .T. ) ;
#86 = ORIENTED_EDGE ( 'NONE', *, *, #305, .T. ) ;
#87 = CARTESIAN_POINT ( 'NONE',  ( 0.0000000000000000000, 0.0000000000000000000, 10.00000000000000000 ) ) ;
#88 = ORIENTED_EDGE ( 'NONE', *, *, #305, .F. ) ;
#89 = ORIENTED_EDGE ( 'NONE', *, *, #273, .T. ) ;
#90 = LOCAL_TIME ( 11, 40, 18.00000000000000000, #262 ) ;
#91 = VECTOR ( 'NONE', #74, 1000.000000000000100 ) ;
#92 = CARTESIAN_POINT ( 'NONE',  ( 10.00000000000000200, 10.00000000000000200, 10.00000000000000000 ) ) ;
#93 = DIRECTION ( 'NONE',  ( -0.0000000000000000000, 1.000000000000000000, -0.0000000000000000000 ) ) ;
#94 = COORDINATED_UNIVERSAL_TIME_OFFSET ( 7, 0, .BEHIND. ) ;
#95 = DIRECTION ( 'NONE',  ( 0.0000000000000000000, 0.0000000000000000000, 1.000000000000000000 ) ) ;
#96 = ADVANCED_FACE ( 'NONE', ( #306 ), #106, .F. ) ;
#97 = LINE ( 'NONE', #180, #299 ) ;
#98 = EDGE_LOOP ( 'NONE', ( #34, #154, #290 ) ) ;
#99 = DIRECTION ( 'NONE',  ( -1.000000000000000000, 0.0000000000000000000, 0.0000000000000000000 ) ) ;
#100 = EDGE_CURVE ( 'NONE', #62, #144, #49, .T. ) ;
#101 = PERSON_AND_ORGANIZATION_ROLE ( 'creator' ) ;
#102 = APPROVAL_PERSON_ORGANIZATION ( #164, #4, #155 ) ;
#103 = CARTESIAN_POINT ( 'NONE',  ( 0.0000000000000000000, 0.0000000000000000000, 10.00000000000000000 ) ) ;
#104 = AXIS2_PLACEMENT_3D ( 'NONE', #54, #50, #44 ) ;
#105 = LOCAL_TIME ( 11, 40, 18.00000000000000000, #291 ) ;
#106 = PLANE ( 'NONE',  #250 ) ;
#107 = ORIENTED_EDGE ( 'NONE', *, *, #318, .T. ) ;
#108 = EDGE_CURVE ( 'NONE', #219, #28, #223, .T. ) ;
#109 = ORIENTED_EDGE ( 'NONE', *, *, #320, .F. ) ;
#110 = MANIFOLD_SOLID_BREP ( 'Boss-Extrude1', #26 ) ;
#111 = ORIENTED_EDGE ( 'NONE', *, *, #271, .F. ) ;
#112 = LINE ( 'NONE', #35, #296 ) ;
#113 = CC_DESIGN_SECURITY_CLASSIFICATION ( #18, ( #39 ) ) ;
#114 = PRODUCT ( 'step_49870', 'step_49870', '', ( #211 ) ) ;
#115 = PLANE ( 'NONE',  #266 ) ;
#116 = ORIENTED_EDGE ( 'NONE', *, *, #276, .F. ) ;
#117 = CARTESIAN_POINT ( 'NONE',  ( 10.00000000000000200, 10.00000000000000200, 10.00000000000000000 ) ) ;
#118 = VECTOR ( 'NONE', #148, 1000.000000000000000 ) ;
#119 =( GEOMETRIC_REPRESENTATION_CONTEXT ( 3 ) GLOBAL_UNCERTAINTY_ASSIGNED_CONTEXT ( ( #42 ) ) GLOBAL_UNIT_ASSIGNED_CONTEXT ( ( #33, #51, #204 ) ) REPRESENTATION_CONTEXT ( 'NONE', 'WORKASPACE' ) );
#120 = DATE_TIME_ROLE ( 'classification_date' ) ;
#121 = DIRECTION ( 'NONE',  ( -1.000000000000000000, -0.0000000000000000000, -0.0000000000000000000 ) ) ;
#122 = AXIS2_PLACEMENT_3D ( 'NONE', #117, #99, #95 ) ;
#123 = PRODUCT_DEFINITION_SHAPE ( 'NONE', 'NONE',  #68 ) ;
#124 = EDGE_LOOP ( 'NONE', ( #216, #116, #67, #202 ) ) ;
#125 = LINE ( 'NONE', #283, #141 ) ;
#126 = DIRECTION ( 'NONE',  ( -0.7071067811865474600, -0.7071067811865474600, 0.0000000000000000000 ) ) ;
#127 = ORIENTED_EDGE ( 'NONE', *, *, #289, .T. ) ;
#128 = VECTOR ( 'NONE', #83, 1000.000000000000100 ) ;
#129 = APPROVAL_DATE_TIME ( #173, #4 ) ;
#130 = VECTOR ( 'NONE', #208, 1000.000000000000000 ) ;
#131 = PLANE ( 'NONE',  #122 ) ;
#132 = PERSON_AND_ORGANIZATION ( #174, #47 ) ;
#133 = CARTESIAN_POINT ( 'NONE',  ( 0.0000000000000000000, 10.00000000000000200, 10.00000000000000000 ) ) ;
#134 = VECTOR ( 'NONE', #24, 1000.000000000000000 ) ;
#135 = APPROVAL_STATUS ( 'not_yet_approved' ) ;
#136 = CALENDAR_DATE ( 2014, 5, 6 ) ;
#137 = VERTEX_POINT ( 'NONE', #312 ) ;
#138 = CALENDAR_DATE ( 2014, 5, 6 ) ;
#139 = DIRECTION ( 'NONE',  ( -0.0000000000000000000, -0.0000000000000000000, -1.000000000000000000 ) ) ;
#140 = AXIS2_PLACEMENT_3D ( 'NONE', #181, #175, #163 ) ;
#141 = VECTOR ( 'NONE', #297, 1000.000000000000100 ) ;
#142 = ORIENTED_EDGE ( 'NONE', *, *, #295, .F. ) ;
#143 = ORIENTED_EDGE ( 'NONE', *, *, #187, .F. ) ;
#144 = VERTEX_POINT ( 'NONE', #321 ) ;
#145 = CARTESIAN_POINT ( 'NONE',  ( 10.00000000000000200, 10.00000000000000200, 10.00000000000000000 ) ) ;
#146 = ORIENTED_EDGE ( 'NONE', *, *, #284, .T. ) ;
#147 = FACE_OUTER_BOUND ( 'NONE', #124, .T. ) ;
#148 = DIRECTION ( 'NONE',  ( -0.0000000000000000000, -0.0000000000000000000, -1.000000000000000000 ) ) ;
#149 = ORIENTED_EDGE ( 'NONE', *, *, #172, .T. ) ;
#150 = DIRECTION ( 'NONE',  ( -0.0000000000000000000, -0.0000000000000000000, -1.000000000000000000 ) ) ;
#151 = CARTESIAN_POINT ( 'NONE',  ( 0.0000000000000000000, 0.0000000000000000000, 10.00000000000000000 ) ) ;
#152 = AXIS2_PLACEMENT_3D ( 'NONE', #244, #213, #209 ) ;
#153 = DIRECTION ( 'NONE',  ( 5.306039724263174900E-016, 1.000000000000000000, -0.0000000000000000000 ) ) ;
#154 = ORIENTED_EDGE ( 'NONE', *, *, #85, .F. ) ;
#155 = APPROVAL_ROLE ( '' ) ;
#156 = PERSON_AND_ORGANIZATION_ROLE ( 'design_supplier' ) ;
#157 = ADVANCED_FACE ( 'NONE', ( #315 ), #294, .T. ) ;
#158 = PERSON_AND_ORGANIZATION ( #174, #47 ) ;
#159 = EDGE_LOOP ( 'NONE', ( #8, #111, #314, #13 ) ) ;
#160 = CARTESIAN_POINT ( 'NONE',  ( 0.0000000000000000000, 0.0000000000000000000, 0.0000000000000000000 ) ) ;
#161 = PERSON_AND_ORGANIZATION ( #174, #47 ) ;
#162 = EDGE_LOOP ( 'NONE', ( #176, #232, #165 ) ) ;
#163 = DIRECTION ( 'NONE',  ( 0.0000000000000000000, -0.0000000000000000000, -1.000000000000000000 ) ) ;
#164 = PERSON_AND_ORGANIZATION ( #174, #47 ) ;
#165 = ORIENTED_EDGE ( 'NONE', *, *, #318, .F. ) ;
#166 = LINE ( 'NONE', #15, #134 ) ;
#167 = APPROVAL_PERSON_ORGANIZATION ( #132, #63, #287 ) ;
#168 = SECURITY_CLASSIFICATION_LEVEL ( 'unclassified' ) ;
#169 = LOCAL_TIME ( 11, 40, 18.00000000000000000, #253 ) ;
#170 = APPLICATION_CONTEXT ( 'configuration controlled 3d designs of mechanical parts and assemblies' ) ;
#171 = PLANE ( 'NONE',  #282 ) ;
#172 = EDGE_CURVE ( 'NONE', #36, #137, #125, .T. ) ;
#173 = DATE_AND_TIME ( #303, #16 ) ;
#174 = PERSON ( 'UNSPECIFIED', 'UNSPECIFIED', 'UNSPECIFIED', ('UNSPECIFIED'), ('UNSPECIFIED'), ('UNSPECIFIED') ) ;
#175 = DIRECTION ( 'NONE',  ( 0.0000000000000000000, -1.000000000000000000, 0.0000000000000000000 ) ) ;
#176 = ORIENTED_EDGE ( 'NONE', *, *, #100, .F. ) ;
#177 = CARTESIAN_POINT ( 'NONE',  ( 0.0000000000000000000, 10.00000000000000200, 10.00000000000000000 ) ) ;
#178 = VECTOR ( 'NONE', #150, 1000.000000000000000 ) ;
#179 = LINE ( 'NONE', #87, #245 ) ;
#180 = CARTESIAN_POINT ( 'NONE',  ( 0.0000000000000000000, 0.0000000000000000000, 0.0000000000000000000 ) ) ;
#181 = CARTESIAN_POINT ( 'NONE',  ( 0.0000000000000000000, 10.00000000000000200, 10.00000000000000000 ) ) ;
#182 = MANIFOLD_SOLID_BREP ( 'Boss-Extrude2', #12 ) ;
#183 = PLANE ( 'NONE',  #140 ) ;
#184 = APPLICATION_PROTOCOL_DEFINITION ( 'international standard', 'config_control_design', 1994, #188 ) ;
#185 = ADVANCED_FACE ( 'NONE', ( #258 ), #261, .T. ) ;
#186 = VERTEX_POINT ( 'NONE', #265 ) ;
#187 = EDGE_CURVE ( 'NONE', #319, #36, #201, .T. ) ;
#188 = APPLICATION_CONTEXT ( 'configuration controlled 3d designs of mechanical parts and assemblies' ) ;
#189 = DIRECTION ( 'NONE',  ( 0.7071067811865474600, 0.7071067811865474600, -0.0000000000000000000 ) ) ;
#190 = ORIENTED_EDGE ( 'NONE', *, *, #289, .F. ) ;
#191 = DIRECTION ( 'NONE',  ( -0.0000000000000000000, -0.0000000000000000000, -1.000000000000000000 ) ) ;
#192 = EDGE_LOOP ( 'NONE', ( #89, #127, #304 ) ) ;
#193 = AXIS2_PLACEMENT_3D ( 'NONE', #229, #227, #224 ) ;
#194 = FACE_OUTER_BOUND ( 'NONE', #195, .T. ) ;
#195 = EDGE_LOOP ( 'NONE', ( #149, #199, #46, #76 ) ) ;
#196 = LINE ( 'NONE', #198, #225 ) ;
#197 = EDGE_LOOP ( 'NONE', ( #200, #86, #23 ) ) ;
#198 = CARTESIAN_POINT ( 'NONE',  ( 10.00000000000000200, 10.00000000000000200, 10.00000000000000000 ) ) ;
#199 = ORIENTED_EDGE ( 'NONE', *, *, #284, .F. ) ;
#200 = ORIENTED_EDGE ( 'NONE', *, *, #108, .T. ) ;
#201 = LINE ( 'NONE', #281, #310 ) ;
#202 = ORIENTED_EDGE ( 'NONE', *, *, #320, .T. ) ;
#203 = VECTOR ( 'NONE', #22, 1000.000000000000000 ) ;
#204 =( NAMED_UNIT ( * ) SI_UNIT ( $, .STERADIAN. ) SOLID_ANGLE_UNIT ( ) );
#205 = CARTESIAN_POINT ( 'NONE',  ( 0.0000000000000000000, 10.00000000000000200, 0.0000000000000000000 ) ) ;
#206 = CARTESIAN_POINT ( 'NONE',  ( 0.0000000000000000000, 10.00000000000000200, 0.0000000000000000000 ) ) ;
#207 = ORIENTED_EDGE ( 'NONE', *, *, #279, .T. ) ;
#208 = DIRECTION ( 'NONE',  ( -1.000000000000000000, -0.0000000000000000000, -0.0000000000000000000 ) ) ;
#209 = DIRECTION ( 'NONE',  ( 0.0000000000000000000, 0.0000000000000000000, -1.000000000000000000 ) ) ;
#210 = ADVANCED_FACE ( 'NONE', ( #269 ), #247, .F. ) ;
#211 = MECHANICAL_CONTEXT ( 'NONE', #170, 'mechanical' ) ;
#212 = AXIS2_PLACEMENT_3D ( 'NONE', #313, #254, #252 ) ;
#213 = DIRECTION ( 'NONE',  ( 1.000000000000000000, 0.0000000000000000000, 0.0000000000000000000 ) ) ;
#214 = LOCAL_TIME ( 11, 40, 18.00000000000000000, #236 ) ;
#215 = CALENDAR_DATE ( 2014, 5, 6 ) ;
#216 = ORIENTED_EDGE ( 'NONE', *, *, #300, .T. ) ;
#217 = FACE_OUTER_BOUND ( 'NONE', #159, .T. ) ;
#218 = PLANE ( 'NONE',  #152 ) ;
#219 = VERTEX_POINT ( 'NONE', #251 ) ;
#220 = CARTESIAN_POINT ( 'NONE',  ( 0.0000000000000000000, 0.0000000000000000000, 10.00000000000000000 ) ) ;
#221 = CARTESIAN_POINT ( 'NONE',  ( 0.0000000000000000000, 10.00000000000000200, 10.00000000000000000 ) ) ;
#222 = CARTESIAN_POINT ( 'NONE',  ( 10.00000000000000200, -5.306039724263175300E-015, 10.00000000000000000 ) ) ;
#223 = LINE ( 'NONE', #2, #203 ) ;
#224 = DIRECTION ( 'NONE',  ( 1.000000000000000000, 0.0000000000000000000, -0.0000000000000000000 ) ) ;
#225 = VECTOR ( 'NONE', #189, 1000.000000000000100 ) ;
#226 = VECTOR ( 'NONE', #139, 1000.000000000000000 ) ;
#227 = DIRECTION ( 'NONE',  ( 0.0000000000000000000, 0.0000000000000000000, 1.000000000000000000 ) ) ;
#228 = ADVANCED_FACE ( 'NONE', ( #277 ), #218, .F. ) ;
#229 = CARTESIAN_POINT ( 'NONE',  ( 0.0000000000000000000, 0.0000000000000000000, 0.0000000000000000000 ) ) ;
#230 = EDGE_LOOP ( 'NONE', ( #107, #109, #88, #75 ) ) ;
#231 = AXIS2_PLACEMENT_3D ( 'NONE', #307, #288, #286 ) ;
#232 = ORIENTED_EDGE ( 'NONE', *, *, #300, .F. ) ;
#233 = CARTESIAN_POINT ( 'NONE',  ( 10.00000000000000200, 10.00000000000000200, 0.0000000000000000000 ) ) ;
#234 = LINE ( 'NONE', #145, #226 ) ;
#235 = CARTESIAN_POINT ( 'NONE',  ( 10.00000000000000200, 10.00000000000000200, 10.00000000000000000 ) ) ;
#236 = COORDINATED_UNIVERSAL_TIME_OFFSET ( 7, 0, .BEHIND. ) ;
#237 = APPROVAL_DATE_TIME ( #21, #37 ) ;
#238 = APPLICATION_PROTOCOL_DEFINITION ( 'international standard', 'config_control_design', 1994, #170 ) ;
#239 = PERSON_AND_ORGANIZATION ( #174, #47 ) ;
#240 = CARTESIAN_POINT ( 'NONE',  ( 0.0000000000000000000, 0.0000000000000000000, 0.0000000000000000000 ) ) ;
#241 = DATE_AND_TIME ( #215, #105 ) ;
#242 = DIRECTION ( 'NONE',  ( -0.0000000000000000000, -0.0000000000000000000, -1.000000000000000000 ) ) ;
#243 = DATE_TIME_ROLE ( 'creation_date' ) ;
#244 = CARTESIAN_POINT ( 'NONE',  ( 0.0000000000000000000, 0.0000000000000000000, 10.00000000000000000 ) ) ;
#245 = VECTOR ( 'NONE', #84, 1000.000000000000000 ) ;
#246 = CARTESIAN_POINT ( 'NONE',  ( 10.00000000000000200, -5.306039724263175300E-015, 10.00000000000000000 ) ) ;
#247 = PLANE ( 'NONE',  #193 ) ;
#248 = ORIENTED_EDGE ( 'NONE', *, *, #85, .T. ) ;
#249 = APPROVAL_ROLE ( '' ) ;
#250 = AXIS2_PLACEMENT_3D ( 'NONE', #220, #64, #5 ) ;
#251 = CARTESIAN_POINT ( 'NONE',  ( 0.0000000000000000000, 0.0000000000000000000, 10.00000000000000000 ) ) ;
#252 = DIRECTION ( 'NONE',  ( -1.000000000000000000, 0.0000000000000000000, 0.0000000000000000000 ) ) ;
#253 = COORDINATED_UNIVERSAL_TIME_OFFSET ( 7, 0, .BEHIND. ) ;
#254 = DIRECTION ( 'NONE',  ( 0.0000000000000000000, 0.0000000000000000000, -1.000000000000000000 ) ) ;
#255 = VECTOR ( 'NONE', #93, 1000.000000000000000 ) ;
#256 = LINE ( 'NONE', #222, #27 ) ;
#257 = PERSON_AND_ORGANIZATION_ROLE ( 'classification_officer' ) ;
#258 = FACE_OUTER_BOUND ( 'NONE', #98, .T. ) ;
#259 = EDGE_LOOP ( 'NONE', ( #272, #80, #190, #146 ) ) ;
#260 = EDGE_CURVE ( 'NONE', #137, #268, #65, .T. ) ;
#261 = PLANE ( 'NONE',  #212 ) ;
#262 = COORDINATED_UNIVERSAL_TIME_OFFSET ( 7, 0, .BEHIND. ) ;
#263 = DESIGN_CONTEXT ( 'detailed design', #188, 'design' ) ;
#264 = APPROVAL_STATUS ( 'not_yet_approved' ) ;
#265 = CARTESIAN_POINT ( 'NONE',  ( 10.00000000000000200, 10.00000000000000200, 10.00000000000000000 ) ) ;
#266 = AXIS2_PLACEMENT_3D ( 'NONE', #275, #153, #78 ) ;
#267 = CALENDAR_DATE ( 2014, 5, 6 ) ;
#268 = VERTEX_POINT ( 'NONE', #205 ) ;
#269 = FACE_OUTER_BOUND ( 'NONE', #162, .T. ) ;
#270 = APPROVAL_PERSON_ORGANIZATION ( #280, #37, #249 ) ;
#271 = EDGE_CURVE ( 'NONE', #28, #144, #256, .T. ) ;
#272 = ORIENTED_EDGE ( 'NONE', *, *, #260, .T. ) ;
#273 = EDGE_CURVE ( 'NONE', #319, #186, #196, .T. ) ;
#274 = ADVANCED_FACE ( 'NONE', ( #14 ), #183, .F. ) ;
#275 = CARTESIAN_POINT ( 'NONE',  ( 10.00000000000000200, -5.306039724263175300E-015, 10.00000000000000000 ) ) ;
#276 = EDGE_CURVE ( 'NONE', #219, #62, #19, .T. ) ;
#277 = FACE_OUTER_BOUND ( 'NONE', #278, .T. ) ;
#278 = EDGE_LOOP ( 'NONE', ( #248, #143, #142, #207 ) ) ;
#279 = EDGE_CURVE ( 'NONE', #17, #268, #6, .T. ) ;
#280 = PERSON_AND_ORGANIZATION ( #174, #47 ) ;
#281 = CARTESIAN_POINT ( 'NONE',  ( 0.0000000000000000000, 0.0000000000000000000, 10.00000000000000000 ) ) ;
#282 = AXIS2_PLACEMENT_3D ( 'NONE', #235, #292, #126 ) ;
#283 = CARTESIAN_POINT ( 'NONE',  ( 10.00000000000000200, 10.00000000000000200, 0.0000000000000000000 ) ) ;
#284 = EDGE_CURVE ( 'NONE', #186, #137, #234, .T. ) ;
#285 = CARTESIAN_POINT ( 'NONE',  ( 10.00000000000000200, 10.00000000000000200, 10.00000000000000000 ) ) ;
#286 = DIRECTION ( 'NONE',  ( 1.000000000000000000, 0.0000000000000000000, -0.0000000000000000000 ) ) ;
#287 = APPROVAL_ROLE ( '' ) ;
#288 = DIRECTION ( 'NONE',  ( 0.0000000000000000000, 0.0000000000000000000, 1.000000000000000000 ) ) ;
#289 = EDGE_CURVE ( 'NONE', #186, #17, #31, .T. ) ;
#290 = ORIENTED_EDGE ( 'NONE', *, *, #260, .F. ) ;
#291 = COORDINATED_UNIVERSAL_TIME_OFFSET ( 7, 0, .BEHIND. ) ;
#292 = DIRECTION ( 'NONE',  ( -0.7071067811865475700, 0.7071067811865475700, 0.0000000000000000000 ) ) ;
#293 = ADVANCED_FACE ( 'NONE', ( #302 ), #131, .F. ) ;
#294 = PLANE ( 'NONE',  #231 ) ;
#295 = EDGE_CURVE ( 'NONE', #17, #319, #179, .T. ) ;
#296 = VECTOR ( 'NONE', #60, 1000.000000000000000 ) ;
#297 = DIRECTION ( 'NONE',  ( 0.7071067811865474600, 0.7071067811865474600, -0.0000000000000000000 ) ) ;
#298 = EDGE_CURVE ( 'NONE', #9, #219, #72, .T. ) ;
#299 = VECTOR ( 'NONE', #66, 1000.000000000000000 ) ;
#300 = EDGE_CURVE ( 'NONE', #53, #62, #40, .T. ) ;
#301 = DATE_AND_TIME ( #136, #169 ) ;
#302 = FACE_OUTER_BOUND ( 'NONE', #230, .T. ) ;
#303 = CALENDAR_DATE ( 2014, 5, 6 ) ;
#304 = ORIENTED_EDGE ( 'NONE', *, *, #295, .T. ) ;
#305 = EDGE_CURVE ( 'NONE', #28, #9, #48, .T. ) ;
#306 = FACE_OUTER_BOUND ( 'NONE', #192, .T. ) ;
#307 = CARTESIAN_POINT ( 'NONE',  ( 0.0000000000000000000, 0.0000000000000000000, 10.00000000000000000 ) ) ;
#308 = ADVANCED_BREP_SHAPE_REPRESENTATION ( 'step_49870', ( #110, #182, #79 ), #119 ) ;
#309 = PERSON_AND_ORGANIZATION_ROLE ( 'creator' ) ;
#310 = VECTOR ( 'NONE', #242, 1000.000000000000000 ) ;
#311 = ADVANCED_FACE ( 'NONE', ( #147 ), #61, .F. ) ;
#312 = CARTESIAN_POINT ( 'NONE',  ( 10.00000000000000200, 10.00000000000000200, 0.0000000000000000000 ) ) ;
#313 = CARTESIAN_POINT ( 'NONE',  ( 0.0000000000000000000, 0.0000000000000000000, 0.0000000000000000000 ) ) ;
#314 = ORIENTED_EDGE ( 'NONE', *, *, #108, .F. ) ;
#315 = FACE_OUTER_BOUND ( 'NONE', #197, .T. ) ;
#316 = DIRECTION ( 'NONE',  ( 1.000000000000000000, -5.306039724263174900E-016, -0.0000000000000000000 ) ) ;
#317 = CARTESIAN_POINT ( 'NONE',  ( 10.00000000000000200, -5.306039724263175300E-015, 0.0000000000000000000 ) ) ;
#318 = EDGE_CURVE ( 'NONE', #144, #53, #112, .T. ) ;
#319 = VERTEX_POINT ( 'NONE', #57 ) ;
#320 = EDGE_CURVE ( 'NONE', #9, #53, #166, .T. ) ;
#321 = CARTESIAN_POINT ( 'NONE',  ( 10.00000000000000200, -5.306039724263175300E-015, 0.0000000000000000000 ) ) ;
ENDSEC;
END-ISO-10303-21;
