ISO-10303-21;
HEADER;
FILE_DESCRIPTION (( 'STEP AP203' ),
    '1' );
FILE_NAME ('Web Model 46664_46664.step',
    '2017-04-10T15:39:45',
    ( '' ),
    ( '' ),
    'SwSTEP 2.0',
    'SolidWorks 2016',
    '' );
FILE_SCHEMA (( 'CONFIG_CONTROL_DESIGN' ));
ENDSEC;

DATA;
#1 = ADVANCED_FACE ( 'NONE', ( #126 ), #49, .T. ) ;
#2 = CARTESIAN_POINT ( 'NONE',  ( 0.0000000000000000000, 0.0000000000000000000, 0.5000000000000000000 ) ) ;
#3 = PERSON_AND_ORGANIZATION ( #80, #168 ) ;
#4 = DIRECTION ( 'NONE',  ( -0.0000000000000000000, -0.0000000000000000000, 1.000000000000000000 ) ) ;
#5 = PERSON_AND_ORGANIZATION_ROLE ( 'classification_officer' ) ;
#6 = APPROVAL ( #163, 'UNSPECIFIED' ) ;
#7 = CARTESIAN_POINT ( 'NONE',  ( 6.250000000000000000, 0.0000000000000000000, 0.0000000000000000000 ) ) ;
#8 =( LENGTH_UNIT ( ) NAMED_UNIT ( * ) SI_UNIT ( .MILLI., .METRE. ) );
#9 = CARTESIAN_POINT ( 'NONE',  ( 6.250000000000000000, 0.0000000000000000000, -0.5000000000000000000 ) ) ;
#10 = PERSON_AND_ORGANIZATION_ROLE ( 'design_owner' ) ;
#11 = COORDINATED_UNIVERSAL_TIME_OFFSET ( 5, 0, .BEHIND. ) ;
#12 = VERTEX_POINT ( 'NONE', #60 ) ;
#13 = DATE_AND_TIME ( #70, #158 ) ;
#14 = CC_DESIGN_DATE_AND_TIME_ASSIGNMENT ( #150, #95, ( #28 ) ) ;
#15 = DIRECTION ( 'NONE',  ( -0.0000000000000000000, -0.0000000000000000000, 1.000000000000000000 ) ) ;
#16 =( NAMED_UNIT ( * ) PLANE_ANGLE_UNIT ( ) SI_UNIT ( $, .RADIAN. ) );
#17 = DIRECTION ( 'NONE',  ( 1.000000000000000000, 0.0000000000000000000, 0.0000000000000000000 ) ) ;
#18 = CYLINDRICAL_SURFACE ( 'NONE', #68, 6.250000000000000000 ) ;
#19 = ORIENTED_EDGE ( 'NONE', *, *, #64, .F. ) ;
#20 = AXIS2_PLACEMENT_3D ( 'NONE', #169, #42, #17 ) ;
#21 = CARTESIAN_POINT ( 'NONE',  ( 0.0000000000000000000, 0.0000000000000000000, -0.5000000000000000000 ) ) ;
#22 = LINE ( 'NONE', #7, #43 ) ;
#23 = DIRECTION ( 'NONE',  ( -0.0000000000000000000, -0.0000000000000000000, 1.000000000000000000 ) ) ;
#24 = PERSON_AND_ORGANIZATION_ROLE ( 'creator' ) ;
#25 = CARTESIAN_POINT ( 'NONE',  ( 0.0000000000000000000, 0.0000000000000000000, -0.5000000000000000000 ) ) ;
#26 = PRODUCT ( 'Web Model 46664_46664', 'Web Model 46664_46664', '', ( #139 ) ) ;
#27 = CARTESIAN_POINT ( 'NONE',  ( 0.0000000000000000000, 0.0000000000000000000, 0.5000000000000000000 ) ) ;
#28 = SECURITY_CLASSIFICATION ( '', '', #83 ) ;
#29 = ORIENTED_EDGE ( 'NONE', *, *, #31, .F. ) ;
#30 = ORIENTED_EDGE ( 'NONE', *, *, #76, .F. ) ;
#31 = EDGE_CURVE ( 'NONE', #59, #164, #22, .T. ) ;
#32 = CIRCLE ( 'NONE', #61, 6.250000000000000000 ) ;
#33 = DATE_AND_TIME ( #128, #50 ) ;
#34 = AXIS2_PLACEMENT_3D ( 'NONE', #21, #136, #47 ) ;
#35 = ADVANCED_FACE ( 'NONE', ( #53 ), #18, .T. ) ;
#36 = CC_DESIGN_PERSON_AND_ORGANIZATION_ASSIGNMENT ( #66, #5, ( #28 ) ) ;
#37 = EDGE_LOOP ( 'NONE', ( #101, #65 ) ) ;
#38 = VERTEX_POINT ( 'NONE', #153 ) ;
#39 = APPROVAL_ROLE ( '' ) ;
#40 = PERSON_AND_ORGANIZATION ( #80, #168 ) ;
#41 = DIRECTION ( 'NONE',  ( 0.0000000000000000000, 0.0000000000000000000, 1.000000000000000000 ) ) ;
#42 = DIRECTION ( 'NONE',  ( 0.0000000000000000000, -0.0000000000000000000, 1.000000000000000000 ) ) ;
#43 = VECTOR ( 'NONE', #107, 1000.000000000000000 ) ;
#44 = FACE_OUTER_BOUND ( 'NONE', #167, .T. ) ;
#45 = AXIS2_PLACEMENT_3D ( 'NONE', #2, #82, #74 ) ;
#46 = CARTESIAN_POINT ( 'NONE',  ( -6.250000000000000000, 7.654042494670957600E-016, 0.0000000000000000000 ) ) ;
#47 = DIRECTION ( 'NONE',  ( 1.000000000000000000, 0.0000000000000000000, 0.0000000000000000000 ) ) ;
#48 = AXIS2_PLACEMENT_3D ( 'NONE', #123, #157, #73 ) ;
#49 = CYLINDRICAL_SURFACE ( 'NONE', #48, 6.250000000000000000 ) ;
#50 = LOCAL_TIME ( 11, 39, 45.00000000000000000, #96 ) ;
#51 = CC_DESIGN_APPROVAL ( #145, ( #175 ) ) ;
#52 = DATE_AND_TIME ( #133, #174 ) ;
#53 = FACE_OUTER_BOUND ( 'NONE', #117, .T. ) ;
#54 = EDGE_CURVE ( 'NONE', #12, #164, #109, .T. ) ;
#55 = APPLICATION_CONTEXT ( 'configuration controlled 3d designs of mechanical parts and assemblies' ) ;
#56 = APPROVAL_STATUS ( 'not_yet_approved' ) ;
#57 = DIRECTION ( 'NONE',  ( 1.000000000000000000, 0.0000000000000000000, 0.0000000000000000000 ) ) ;
#58 = LINE ( 'NONE', #46, #135 ) ;
#59 = VERTEX_POINT ( 'NONE', #9 ) ;
#60 = CARTESIAN_POINT ( 'NONE',  ( -6.250000000000000000, 7.654042494670957600E-016, 0.5000000000000000000 ) ) ;
#61 = AXIS2_PLACEMENT_3D ( 'NONE', #27, #171, #72 ) ;
#62 = DIRECTION ( 'NONE',  ( 1.000000000000000000, 0.0000000000000000000, 0.0000000000000000000 ) ) ;
#63 = PERSON_AND_ORGANIZATION ( #80, #168 ) ;
#64 = EDGE_CURVE ( 'NONE', #38, #12, #58, .T. ) ;
#65 = ORIENTED_EDGE ( 'NONE', *, *, #54, .T. ) ;
#66 = PERSON_AND_ORGANIZATION ( #80, #168 ) ;
#67 = EDGE_CURVE ( 'NONE', #59, #38, #152, .T. ) ;
#68 = AXIS2_PLACEMENT_3D ( 'NONE', #124, #23, #127 ) ;
#69 = ORIENTED_EDGE ( 'NONE', *, *, #67, .T. ) ;
#70 = CALENDAR_DATE ( 2017, 10, 4 ) ;
#71 = EDGE_CURVE ( 'NONE', #164, #12, #32, .T. ) ;
#72 = DIRECTION ( 'NONE',  ( 1.000000000000000000, 0.0000000000000000000, 0.0000000000000000000 ) ) ;
#73 = DIRECTION ( 'NONE',  ( 1.000000000000000000, 0.0000000000000000000, 0.0000000000000000000 ) ) ;
#74 = DIRECTION ( 'NONE',  ( -1.000000000000000000, 0.0000000000000000000, -0.0000000000000000000 ) ) ;
#75 = AXIS2_PLACEMENT_3D ( 'NONE', #121, #94, #57 ) ;
#76 = EDGE_CURVE ( 'NONE', #38, #59, #165, .T. ) ;
#77 = PERSON_AND_ORGANIZATION_ROLE ( 'design_supplier' ) ;
#78 = ORIENTED_EDGE ( 'NONE', *, *, #71, .F. ) ;
#79 = ADVANCED_FACE ( 'NONE', ( #44 ), #137, .F. ) ;
#80 = PERSON ( 'UNSPECIFIED', 'UNSPECIFIED', 'UNSPECIFIED', ('UNSPECIFIED'), ('UNSPECIFIED'), ('UNSPECIFIED') ) ;
#81 = ORIENTED_EDGE ( 'NONE', *, *, #31, .T. ) ;
#82 = DIRECTION ( 'NONE',  ( 0.0000000000000000000, 0.0000000000000000000, -1.000000000000000000 ) ) ;
#83 = SECURITY_CLASSIFICATION_LEVEL ( 'unclassified' ) ;
#84 = APPROVAL_PERSON_ORGANIZATION ( #63, #145, #93 ) ;
#85 = PRODUCT_DEFINITION_FORMATION_WITH_SPECIFIED_SOURCE ( 'ANY', '', #26, .NOT_KNOWN. ) ;
#86 = CARTESIAN_POINT ( 'NONE',  ( 6.250000000000000000, 0.0000000000000000000, 0.5000000000000000000 ) ) ;
#87 = COORDINATED_UNIVERSAL_TIME_OFFSET ( 5, 0, .BEHIND. ) ;
#88 = AXIS2_PLACEMENT_3D ( 'NONE', #25, #15, #62 ) ;
#89 = APPLICATION_PROTOCOL_DEFINITION ( 'international standard', 'config_control_design', 1994, #55 ) ;
#90 = APPROVAL_STATUS ( 'not_yet_approved' ) ;
#91 = SHAPE_DEFINITION_REPRESENTATION ( #170, #166 ) ;
#92 = PERSON_AND_ORGANIZATION_ROLE ( 'creator' ) ;
#93 = APPROVAL_ROLE ( '' ) ;
#94 = DIRECTION ( 'NONE',  ( -0.0000000000000000000, -0.0000000000000000000, 1.000000000000000000 ) ) ;
#95 = DATE_TIME_ROLE ( 'classification_date' ) ;
#96 = COORDINATED_UNIVERSAL_TIME_OFFSET ( 5, 0, .BEHIND. ) ;
#97 = APPROVAL_DATE_TIME ( #52, #134 ) ;
#98 = LOCAL_TIME ( 11, 39, 45.00000000000000000, #11 ) ;
#99 = EDGE_LOOP ( 'NONE', ( #19, #149, #81, #162 ) ) ;
#100 = LOCAL_TIME ( 11, 39, 45.00000000000000000, #129 ) ;
#101 = ORIENTED_EDGE ( 'NONE', *, *, #71, .T. ) ;
#102 = PRODUCT_RELATED_PRODUCT_CATEGORY ( 'detail', '', ( #26 ) ) ;
#103 = APPLICATION_CONTEXT ( 'configuration controlled 3d designs of mechanical parts and assemblies' ) ;
#104 = APPLICATION_PROTOCOL_DEFINITION ( 'international standard', 'config_control_design', 1994, #103 ) ;
#105 = APPROVAL_PERSON_ORGANIZATION ( #40, #134, #39 ) ;
#106 = CARTESIAN_POINT ( 'NONE',  ( 0.0000000000000000000, 0.0000000000000000000, 0.0000000000000000000 ) ) ;
#107 = DIRECTION ( 'NONE',  ( -0.0000000000000000000, -0.0000000000000000000, 1.000000000000000000 ) ) ;
#108 = CC_DESIGN_PERSON_AND_ORGANIZATION_ASSIGNMENT ( #111, #10, ( #26 ) ) ;
#109 = CIRCLE ( 'NONE', #75, 6.250000000000000000 ) ;
#110 = DATE_AND_TIME ( #143, #98 ) ;
#111 = PERSON_AND_ORGANIZATION ( #80, #168 ) ;
#112 = CC_DESIGN_APPROVAL ( #6, ( #85 ) ) ;
#113 = CLOSED_SHELL ( 'NONE', ( #35, #130, #1, #79 ) ) ;
#114 = DATE_TIME_ROLE ( 'creation_date' ) ;
#115 = CC_DESIGN_SECURITY_CLASSIFICATION ( #28, ( #85 ) ) ;
#116 = APPROVAL_DATE_TIME ( #13, #6 ) ;
#117 = EDGE_LOOP ( 'NONE', ( #69, #138, #78, #29 ) ) ;
#118 = APPROVAL_DATE_TIME ( #110, #145 ) ;
#119 = CC_DESIGN_DATE_AND_TIME_ASSIGNMENT ( #33, #114, ( #175 ) ) ;
#120 = CC_DESIGN_PERSON_AND_ORGANIZATION_ASSIGNMENT ( #3, #92, ( #85 ) ) ;
#121 = CARTESIAN_POINT ( 'NONE',  ( 0.0000000000000000000, 0.0000000000000000000, 0.5000000000000000000 ) ) ;
#122 = ORIENTED_EDGE ( 'NONE', *, *, #67, .F. ) ;
#123 = CARTESIAN_POINT ( 'NONE',  ( 0.0000000000000000000, 0.0000000000000000000, 0.0000000000000000000 ) ) ;
#124 = CARTESIAN_POINT ( 'NONE',  ( 0.0000000000000000000, 0.0000000000000000000, 0.0000000000000000000 ) ) ;
#125 = CC_DESIGN_APPROVAL ( #134, ( #28 ) ) ;
#126 = FACE_OUTER_BOUND ( 'NONE', #99, .T. ) ;
#127 = DIRECTION ( 'NONE',  ( 1.000000000000000000, 0.0000000000000000000, 0.0000000000000000000 ) ) ;
#128 = CALENDAR_DATE ( 2017, 10, 4 ) ;
#129 = COORDINATED_UNIVERSAL_TIME_OFFSET ( 5, 0, .BEHIND. ) ;
#130 = ADVANCED_FACE ( 'NONE', ( #141 ), #156, .F. ) ;
#131 = UNCERTAINTY_MEASURE_WITH_UNIT (LENGTH_MEASURE( 1.000000000000000100E-005 ), #8, 'distance_accuracy_value', 'NONE');
#132 = APPROVAL_PERSON_ORGANIZATION ( #161, #6, #142 ) ;
#133 = CALENDAR_DATE ( 2017, 10, 4 ) ;
#134 = APPROVAL ( #56, 'UNSPECIFIED' ) ;
#135 = VECTOR ( 'NONE', #4, 1000.000000000000000 ) ;
#136 = DIRECTION ( 'NONE',  ( -0.0000000000000000000, -0.0000000000000000000, 1.000000000000000000 ) ) ;
#137 = PLANE ( 'NONE',  #20 ) ;
#138 = ORIENTED_EDGE ( 'NONE', *, *, #64, .T. ) ;
#139 = MECHANICAL_CONTEXT ( 'NONE', #55, 'mechanical' ) ;
#140 = PERSON_AND_ORGANIZATION ( #80, #168 ) ;
#141 = FACE_OUTER_BOUND ( 'NONE', #37, .T. ) ;
#142 = APPROVAL_ROLE ( '' ) ;
#143 = CALENDAR_DATE ( 2017, 10, 4 ) ;
#144 =( NAMED_UNIT ( * ) SI_UNIT ( $, .STERADIAN. ) SOLID_ANGLE_UNIT ( ) );
#145 = APPROVAL ( #90, 'UNSPECIFIED' ) ;
#146 = DESIGN_CONTEXT ( 'detailed design', #103, 'design' ) ;
#147 = PERSON_AND_ORGANIZATION ( #80, #168 ) ;
#148 = AXIS2_PLACEMENT_3D ( 'NONE', #106, #41, #172 ) ;
#149 = ORIENTED_EDGE ( 'NONE', *, *, #76, .T. ) ;
#150 = DATE_AND_TIME ( #154, #100 ) ;
#151 = COORDINATED_UNIVERSAL_TIME_OFFSET ( 5, 0, .BEHIND. ) ;
#152 = CIRCLE ( 'NONE', #88, 6.250000000000000000 ) ;
#153 = CARTESIAN_POINT ( 'NONE',  ( -6.250000000000000000, 7.654042494670957600E-016, -0.5000000000000000000 ) ) ;
#154 = CALENDAR_DATE ( 2017, 10, 4 ) ;
#155 = CC_DESIGN_PERSON_AND_ORGANIZATION_ASSIGNMENT ( #147, #77, ( #85 ) ) ;
#156 = PLANE ( 'NONE',  #45 ) ;
#157 = DIRECTION ( 'NONE',  ( -0.0000000000000000000, -0.0000000000000000000, 1.000000000000000000 ) ) ;
#158 = LOCAL_TIME ( 11, 39, 45.00000000000000000, #87 ) ;
#159 = MANIFOLD_SOLID_BREP ( 'Revolve1', #113 ) ;
#160 =( GEOMETRIC_REPRESENTATION_CONTEXT ( 3 ) GLOBAL_UNCERTAINTY_ASSIGNED_CONTEXT ( ( #131 ) ) GLOBAL_UNIT_ASSIGNED_CONTEXT ( ( #8, #16, #144 ) ) REPRESENTATION_CONTEXT ( 'NONE', 'WORKASPACE' ) );
#161 = PERSON_AND_ORGANIZATION ( #80, #168 ) ;
#162 = ORIENTED_EDGE ( 'NONE', *, *, #54, .F. ) ;
#163 = APPROVAL_STATUS ( 'not_yet_approved' ) ;
#164 = VERTEX_POINT ( 'NONE', #86 ) ;
#165 = CIRCLE ( 'NONE', #34, 6.250000000000000000 ) ;
#166 = ADVANCED_BREP_SHAPE_REPRESENTATION ( 'Web Model 46664_46664', ( #159, #148 ), #160 ) ;
#167 = EDGE_LOOP ( 'NONE', ( #122, #30 ) ) ;
#168 = ORGANIZATION ( 'UNSPECIFIED', 'UNSPECIFIED', '' ) ;
#169 = CARTESIAN_POINT ( 'NONE',  ( 0.0000000000000000000, 0.0000000000000000000, -0.5000000000000000000 ) ) ;
#170 = PRODUCT_DEFINITION_SHAPE ( 'NONE', 'NONE',  #175 ) ;
#171 = DIRECTION ( 'NONE',  ( -0.0000000000000000000, -0.0000000000000000000, 1.000000000000000000 ) ) ;
#172 = DIRECTION ( 'NONE',  ( 1.000000000000000000, 0.0000000000000000000, 0.0000000000000000000 ) ) ;
#173 = CC_DESIGN_PERSON_AND_ORGANIZATION_ASSIGNMENT ( #140, #24, ( #175 ) ) ;
#174 = LOCAL_TIME ( 11, 39, 45.00000000000000000, #151 ) ;
#175 = PRODUCT_DEFINITION ( 'UNKNOWN', '', #85, #146 ) ;
ENDSEC;
END-ISO-10303-21;
