ISO-10303-21;
HEADER;
FILE_DESCRIPTION (( 'STEP AP203' ),
    '1' );
FILE_NAME ('Web Model 65871.STEP',
    '2017-01-31T19:29:00',
    ( '' ),
    ( '' ),
    'SwSTEP 2.0',
    'SolidWorks 2016',
    '' );
FILE_SCHEMA (( 'CONFIG_CONTROL_DESIGN' ));
ENDSEC;

DATA;
#1 = DIRECTION ( 'NONE',  ( 0.0000000000000000000, 0.0000000000000000000, 1.000000000000000000 ) ) ;
#2 = CARTESIAN_POINT ( 'NONE',  ( 0.0000000000000000000, 0.0000000000000000000, 0.0000000000000000000 ) ) ;
#3 = PERSON_AND_ORGANIZATION ( #59, #22 ) ;
#4 = PERSON_AND_ORGANIZATION ( #59, #22 ) ;
#5 = APPLICATION_CONTEXT ( 'configuration controlled 3d designs of mechanical parts and assemblies' ) ;
#6 = EDGE_CURVE ( 'NONE', #9, #111, #91, .T. ) ;
#7 = APPROVAL_PERSON_ORGANIZATION ( #3, #137, #130 ) ;
#8 = CC_DESIGN_PERSON_AND_ORGANIZATION_ASSIGNMENT ( #110, #31, ( #126 ) ) ;
#9 = VERTEX_POINT ( 'NONE', #49 ) ;
#10 = LOCAL_TIME ( 14, 29, 0.0000000000000000000, #101 ) ;
#11 = CYLINDRICAL_SURFACE ( 'NONE', #166, 5.000000000000000000 ) ;
#12 = PRODUCT_DEFINITION ( 'UNKNOWN', '', #126, #50 ) ;
#13 = CARTESIAN_POINT ( 'NONE',  ( 0.0000000000000000000, 0.0000000000000000000, 1.250000000000000000 ) ) ;
#14 = CIRCLE ( 'NONE', #163, 5.000000000000000000 ) ;
#15 = DIRECTION ( 'NONE',  ( 0.0000000000000000000, 0.0000000000000000000, 1.000000000000000000 ) ) ;
#16 = EDGE_LOOP ( 'NONE', ( #124, #76 ) ) ;
#17 = PERSON_AND_ORGANIZATION_ROLE ( 'creator' ) ;
#18 = CLOSED_SHELL ( 'NONE', ( #70, #103, #67, #27 ) ) ;
#19 = MANIFOLD_SOLID_BREP ( 'Extrude1', #18 ) ;
#20 = FACE_OUTER_BOUND ( 'NONE', #170, .T. ) ;
#21 = CARTESIAN_POINT ( 'NONE',  ( 0.0000000000000000000, 0.0000000000000000000, 1.250000000000000000 ) ) ;
#22 = ORGANIZATION ( 'UNSPECIFIED', 'UNSPECIFIED', '' ) ;
#23 = CARTESIAN_POINT ( 'NONE',  ( 0.0000000000000000000, 0.0000000000000000000, 1.250000000000000000 ) ) ;
#24 = CARTESIAN_POINT ( 'NONE',  ( 5.000000000000000000, 6.123233995736766300E-016, 0.0000000000000000000 ) ) ;
#25 = APPROVAL_PERSON_ORGANIZATION ( #100, #134, #77 ) ;
#26 = DATE_TIME_ROLE ( 'creation_date' ) ;
#27 = ADVANCED_FACE ( 'NONE', ( #48 ), #90, .F. ) ;
#28 = PERSON_AND_ORGANIZATION ( #59, #22 ) ;
#29 = PERSON_AND_ORGANIZATION ( #59, #22 ) ;
#30 = CC_DESIGN_PERSON_AND_ORGANIZATION_ASSIGNMENT ( #28, #118, ( #126 ) ) ;
#31 = PERSON_AND_ORGANIZATION_ROLE ( 'creator' ) ;
#32 = COORDINATED_UNIVERSAL_TIME_OFFSET ( 5, 0, .BEHIND. ) ;
#33 = LINE ( 'NONE', #155, #139 ) ;
#34 = COORDINATED_UNIVERSAL_TIME_OFFSET ( 5, 0, .BEHIND. ) ;
#35 = APPROVAL_DATE_TIME ( #53, #134 ) ;
#36 = DIRECTION ( 'NONE',  ( 1.000000000000000000, 0.0000000000000000000, 0.0000000000000000000 ) ) ;
#37 = CARTESIAN_POINT ( 'NONE',  ( 0.0000000000000000000, 0.0000000000000000000, 1.250000000000000000 ) ) ;
#38 = CALENDAR_DATE ( 2017, 31, 1 ) ;
#39 = DIRECTION ( 'NONE',  ( 1.000000000000000000, 0.0000000000000000000, 0.0000000000000000000 ) ) ;
#40 = DIRECTION ( 'NONE',  ( 0.0000000000000000000, 0.0000000000000000000, 1.000000000000000000 ) ) ;
#41 = VECTOR ( 'NONE', #66, 1000.000000000000000 ) ;
#42 = EDGE_CURVE ( 'NONE', #95, #98, #14, .T. ) ;
#43 = LINE ( 'NONE', #102, #41 ) ;
#44 = SECURITY_CLASSIFICATION ( '', '', #92 ) ;
#45 = FACE_OUTER_BOUND ( 'NONE', #97, .T. ) ;
#46 = ORIENTED_EDGE ( 'NONE', *, *, #123, .T. ) ;
#47 = EDGE_CURVE ( 'NONE', #98, #95, #161, .T. ) ;
#48 = FACE_OUTER_BOUND ( 'NONE', #16, .T. ) ;
#49 = CARTESIAN_POINT ( 'NONE',  ( 5.000000000000000000, 6.123233995736766300E-016, 1.250000000000000000 ) ) ;
#50 = DESIGN_CONTEXT ( 'detailed design', #5, 'design' ) ;
#51 = DIRECTION ( 'NONE',  ( -1.000000000000000000, 0.0000000000000000000, 0.0000000000000000000 ) ) ;
#52 = CARTESIAN_POINT ( 'NONE',  ( -5.000000000000000000, 0.0000000000000000000, 1.250000000000000000 ) ) ;
#53 = DATE_AND_TIME ( #69, #63 ) ;
#54 = ORIENTED_EDGE ( 'NONE', *, *, #62, .T. ) ;
#55 = APPROVAL_ROLE ( '' ) ;
#56 = DATE_AND_TIME ( #94, #79 ) ;
#57 = ORIENTED_EDGE ( 'NONE', *, *, #58, .T. ) ;
#58 = EDGE_CURVE ( 'NONE', #9, #98, #43, .T. ) ;
#59 = PERSON ( 'UNSPECIFIED', 'UNSPECIFIED', 'UNSPECIFIED', ('UNSPECIFIED'), ('UNSPECIFIED'), ('UNSPECIFIED') ) ;
#60 = ORIENTED_EDGE ( 'NONE', *, *, #123, .F. ) ;
#61 = CC_DESIGN_DATE_AND_TIME_ASSIGNMENT ( #56, #26, ( #12 ) ) ;
#62 = EDGE_CURVE ( 'NONE', #111, #9, #119, .T. ) ;
#63 = LOCAL_TIME ( 14, 29, 0.0000000000000000000, #146 ) ;
#64 = EDGE_LOOP ( 'NONE', ( #54, #82 ) ) ;
#65 = DIRECTION ( 'NONE',  ( -0.0000000000000000000, -0.0000000000000000000, -1.000000000000000000 ) ) ;
#66 = DIRECTION ( 'NONE',  ( -0.0000000000000000000, -0.0000000000000000000, -1.000000000000000000 ) ) ;
#67 = ADVANCED_FACE ( 'NONE', ( #85 ), #127, .T. ) ;
#68 = CARTESIAN_POINT ( 'NONE',  ( 0.0000000000000000000, 0.0000000000000000000, 0.0000000000000000000 ) ) ;
#69 = CALENDAR_DATE ( 2017, 31, 1 ) ;
#70 = ADVANCED_FACE ( 'NONE', ( #20 ), #165, .T. ) ;
#71 = DIRECTION ( 'NONE',  ( -0.0000000000000000000, -0.0000000000000000000, -1.000000000000000000 ) ) ;
#72 = DIRECTION ( 'NONE',  ( 1.000000000000000000, 0.0000000000000000000, -0.0000000000000000000 ) ) ;
#73 = CC_DESIGN_PERSON_AND_ORGANIZATION_ASSIGNMENT ( #136, #17, ( #12 ) ) ;
#74 = APPLICATION_CONTEXT ( 'configuration controlled 3d designs of mechanical parts and assemblies' ) ;
#75 = DATE_AND_TIME ( #174, #81 ) ;
#76 = ORIENTED_EDGE ( 'NONE', *, *, #47, .F. ) ;
#77 = APPROVAL_ROLE ( '' ) ;
#78 = DATE_TIME_ROLE ( 'classification_date' ) ;
#79 = LOCAL_TIME ( 14, 29, 0.0000000000000000000, #107 ) ;
#80 = CC_DESIGN_APPROVAL ( #175, ( #12 ) ) ;
#81 = LOCAL_TIME ( 14, 29, 0.0000000000000000000, #34 ) ;
#82 = ORIENTED_EDGE ( 'NONE', *, *, #6, .T. ) ;
#83 = CC_DESIGN_SECURITY_CLASSIFICATION ( #44, ( #126 ) ) ;
#84 = PRODUCT ( 'Web Model 65871', 'Web Model 65871', '', ( #159 ) ) ;
#85 = FACE_OUTER_BOUND ( 'NONE', #64, .T. ) ;
#86 = CC_DESIGN_PERSON_AND_ORGANIZATION_ASSIGNMENT ( #138, #169, ( #44 ) ) ;
#87 = ORIENTED_EDGE ( 'NONE', *, *, #58, .F. ) ;
#88 = ORIENTED_EDGE ( 'NONE', *, *, #6, .F. ) ;
#89 = CC_DESIGN_APPROVAL ( #134, ( #126 ) ) ;
#90 = PLANE ( 'NONE',  #121 ) ;
#91 = CIRCLE ( 'NONE', #109, 5.000000000000000000 ) ;
#92 = SECURITY_CLASSIFICATION_LEVEL ( 'unclassified' ) ;
#93 = CC_DESIGN_DATE_AND_TIME_ASSIGNMENT ( #108, #78, ( #44 ) ) ;
#94 = CALENDAR_DATE ( 2017, 31, 1 ) ;
#95 = VERTEX_POINT ( 'NONE', #115 ) ;
#96 = CC_DESIGN_APPROVAL ( #137, ( #44 ) ) ;
#97 = EDGE_LOOP ( 'NONE', ( #87, #151, #46, #122 ) ) ;
#98 = VERTEX_POINT ( 'NONE', #24 ) ;
#99 = DIRECTION ( 'NONE',  ( 1.000000000000000000, 0.0000000000000000000, -0.0000000000000000000 ) ) ;
#100 = PERSON_AND_ORGANIZATION ( #59, #22 ) ;
#101 = COORDINATED_UNIVERSAL_TIME_OFFSET ( 5, 0, .BEHIND. ) ;
#102 = CARTESIAN_POINT ( 'NONE',  ( 5.000000000000000000, 6.123233995736766300E-016, 1.250000000000000000 ) ) ;
#103 = ADVANCED_FACE ( 'NONE', ( #45 ), #11, .T. ) ;
#104 = DIRECTION ( 'NONE',  ( -1.000000000000000000, 0.0000000000000000000, 0.0000000000000000000 ) ) ;
#105 = APPROVAL_DATE_TIME ( #75, #137 ) ;
#106 = PRODUCT_RELATED_PRODUCT_CATEGORY ( 'detail', '', ( #84 ) ) ;
#107 = COORDINATED_UNIVERSAL_TIME_OFFSET ( 5, 0, .BEHIND. ) ;
#108 = DATE_AND_TIME ( #38, #120 ) ;
#109 = AXIS2_PLACEMENT_3D ( 'NONE', #140, #113, #39 ) ;
#110 = PERSON_AND_ORGANIZATION ( #59, #22 ) ;
#111 = VERTEX_POINT ( 'NONE', #52 ) ;
#112 = AXIS2_PLACEMENT_3D ( 'NONE', #156, #15, #147 ) ;
#113 = DIRECTION ( 'NONE',  ( 0.0000000000000000000, 0.0000000000000000000, 1.000000000000000000 ) ) ;
#114 = DIRECTION ( 'NONE',  ( 1.000000000000000000, 0.0000000000000000000, 0.0000000000000000000 ) ) ;
#115 = CARTESIAN_POINT ( 'NONE',  ( -5.000000000000000000, 0.0000000000000000000, 0.0000000000000000000 ) ) ;
#116 = DATE_AND_TIME ( #154, #10 ) ;
#117 =( LENGTH_UNIT ( ) NAMED_UNIT ( * ) SI_UNIT ( .MILLI., .METRE. ) );
#118 = PERSON_AND_ORGANIZATION_ROLE ( 'design_supplier' ) ;
#119 = CIRCLE ( 'NONE', #141, 5.000000000000000000 ) ;
#120 = LOCAL_TIME ( 14, 29, 0.0000000000000000000, #32 ) ;
#121 = AXIS2_PLACEMENT_3D ( 'NONE', #68, #40, #72 ) ;
#122 = ORIENTED_EDGE ( 'NONE', *, *, #42, .T. ) ;
#123 = EDGE_CURVE ( 'NONE', #111, #95, #33, .T. ) ;
#124 = ORIENTED_EDGE ( 'NONE', *, *, #42, .F. ) ;
#125 = DIRECTION ( 'NONE',  ( 0.0000000000000000000, 0.0000000000000000000, 1.000000000000000000 ) ) ;
#126 = PRODUCT_DEFINITION_FORMATION_WITH_SPECIFIED_SOURCE ( 'ANY', '', #84, .NOT_KNOWN. ) ;
#127 = PLANE ( 'NONE',  #150 ) ;
#128 = AXIS2_PLACEMENT_3D ( 'NONE', #2, #144, #153 ) ;
#129 =( NAMED_UNIT ( * ) PLANE_ANGLE_UNIT ( ) SI_UNIT ( $, .RADIAN. ) );
#130 = APPROVAL_ROLE ( '' ) ;
#131 = APPROVAL_STATUS ( 'not_yet_approved' ) ;
#132 = APPLICATION_PROTOCOL_DEFINITION ( 'international standard', 'config_control_design', 1994, #74 ) ;
#133 = APPROVAL_PERSON_ORGANIZATION ( #29, #175, #55 ) ;
#134 = APPROVAL ( #171, 'UNSPECIFIED' ) ;
#135 = ADVANCED_BREP_SHAPE_REPRESENTATION ( 'Web Model 65871', ( #19, #112 ), #160 ) ;
#136 = PERSON_AND_ORGANIZATION ( #59, #22 ) ;
#137 = APPROVAL ( #157, 'UNSPECIFIED' ) ;
#138 = PERSON_AND_ORGANIZATION ( #59, #22 ) ;
#139 = VECTOR ( 'NONE', #71, 1000.000000000000000 ) ;
#140 = CARTESIAN_POINT ( 'NONE',  ( 0.0000000000000000000, 0.0000000000000000000, 1.250000000000000000 ) ) ;
#141 = AXIS2_PLACEMENT_3D ( 'NONE', #13, #164, #36 ) ;
#142 = CARTESIAN_POINT ( 'NONE',  ( 0.0000000000000000000, 0.0000000000000000000, 0.0000000000000000000 ) ) ;
#143 = DIRECTION ( 'NONE',  ( -0.0000000000000000000, -0.0000000000000000000, -1.000000000000000000 ) ) ;
#144 = DIRECTION ( 'NONE',  ( 0.0000000000000000000, 0.0000000000000000000, 1.000000000000000000 ) ) ;
#145 = PERSON_AND_ORGANIZATION_ROLE ( 'design_owner' ) ;
#146 = COORDINATED_UNIVERSAL_TIME_OFFSET ( 5, 0, .BEHIND. ) ;
#147 = DIRECTION ( 'NONE',  ( 1.000000000000000000, 0.0000000000000000000, 0.0000000000000000000 ) ) ;
#148 = AXIS2_PLACEMENT_3D ( 'NONE', #21, #65, #104 ) ;
#149 = APPROVAL_DATE_TIME ( #116, #175 ) ;
#150 = AXIS2_PLACEMENT_3D ( 'NONE', #23, #125, #99 ) ;
#151 = ORIENTED_EDGE ( 'NONE', *, *, #62, .F. ) ;
#152 = PRODUCT_DEFINITION_SHAPE ( 'NONE', 'NONE',  #12 ) ;
#153 = DIRECTION ( 'NONE',  ( 1.000000000000000000, 0.0000000000000000000, 0.0000000000000000000 ) ) ;
#154 = CALENDAR_DATE ( 2017, 31, 1 ) ;
#155 = CARTESIAN_POINT ( 'NONE',  ( -5.000000000000000000, 0.0000000000000000000, 1.250000000000000000 ) ) ;
#156 = CARTESIAN_POINT ( 'NONE',  ( 0.0000000000000000000, 0.0000000000000000000, 0.0000000000000000000 ) ) ;
#157 = APPROVAL_STATUS ( 'not_yet_approved' ) ;
#158 = CC_DESIGN_PERSON_AND_ORGANIZATION_ASSIGNMENT ( #4, #145, ( #84 ) ) ;
#159 = MECHANICAL_CONTEXT ( 'NONE', #74, 'mechanical' ) ;
#160 =( GEOMETRIC_REPRESENTATION_CONTEXT ( 3 ) GLOBAL_UNCERTAINTY_ASSIGNED_CONTEXT ( ( #172 ) ) GLOBAL_UNIT_ASSIGNED_CONTEXT ( ( #117, #129, #168 ) ) REPRESENTATION_CONTEXT ( 'NONE', 'WORKASPACE' ) );
#161 = CIRCLE ( 'NONE', #128, 5.000000000000000000 ) ;
#162 = SHAPE_DEFINITION_REPRESENTATION ( #152, #135 ) ;
#163 = AXIS2_PLACEMENT_3D ( 'NONE', #142, #1, #114 ) ;
#164 = DIRECTION ( 'NONE',  ( 0.0000000000000000000, 0.0000000000000000000, 1.000000000000000000 ) ) ;
#165 = CYLINDRICAL_SURFACE ( 'NONE', #148, 5.000000000000000000 ) ;
#166 = AXIS2_PLACEMENT_3D ( 'NONE', #37, #143, #51 ) ;
#167 = APPLICATION_PROTOCOL_DEFINITION ( 'international standard', 'config_control_design', 1994, #5 ) ;
#168 =( NAMED_UNIT ( * ) SI_UNIT ( $, .STERADIAN. ) SOLID_ANGLE_UNIT ( ) );
#169 = PERSON_AND_ORGANIZATION_ROLE ( 'classification_officer' ) ;
#170 = EDGE_LOOP ( 'NONE', ( #88, #57, #173, #60 ) ) ;
#171 = APPROVAL_STATUS ( 'not_yet_approved' ) ;
#172 = UNCERTAINTY_MEASURE_WITH_UNIT (LENGTH_MEASURE( 1.000000000000000100E-005 ), #117, 'distance_accuracy_value', 'NONE');
#173 = ORIENTED_EDGE ( 'NONE', *, *, #47, .T. ) ;
#174 = CALENDAR_DATE ( 2017, 31, 1 ) ;
#175 = APPROVAL ( #131, 'UNSPECIFIED' ) ;
ENDSEC;
END-ISO-10303-21;
