ISO-10303-21;
HEADER;
FILE_DESCRIPTION (( 'STEP AP203' ),
    '1' );
FILE_NAME ('Web Model 14680_14680.step',
    '2020-04-13T14:05:54',
    ( '' ),
    ( '' ),
    'SwSTEP 2.0',
    'SolidWorks 2018',
    '' );
FILE_SCHEMA (( 'CONFIG_CONTROL_DESIGN' ));
ENDSEC;

DATA;
#1 = CC_DESIGN_APPROVAL ( #4, ( #93 ) ) ;
#2 = VECTOR ( 'NONE', #143, 1000.000000000000000 ) ;
#3 = ORIENTED_EDGE ( 'NONE', *, *, #130, .T. ) ;
#4 = APPROVAL ( #126, 'UNSPECIFIED' ) ;
#5 = APPROVAL_ROLE ( '' ) ;
#6 = CYLINDRICAL_SURFACE ( 'NONE', #111, 12.69999999999999929 ) ;
#7 = ADVANCED_BREP_SHAPE_REPRESENTATION ( 'Web Model 14680_14680', ( #108, #35 ), #21 ) ;
#8 = DIRECTION ( 'NONE',  ( 1.000000000000000000, 0.0000000000000000000, 0.0000000000000000000 ) ) ;
#9 = PERSON_AND_ORGANIZATION ( #125, #115 ) ;
#10 = COORDINATED_UNIVERSAL_TIME_OFFSET ( 5, 0, .BEHIND. ) ;
#11 = PERSON_AND_ORGANIZATION ( #125, #115 ) ;
#12 = AXIS2_PLACEMENT_3D ( 'NONE', #129, #77, #146 ) ;
#13 = FACE_OUTER_BOUND ( 'NONE', #85, .T. ) ;
#14 = PRODUCT_DEFINITION_SHAPE ( 'NONE', 'NONE',  #56 ) ;
#15 = DIRECTION ( 'NONE',  ( 0.0000000000000000000, 0.0000000000000000000, -1.000000000000000000 ) ) ;
#16 = ORIENTED_EDGE ( 'NONE', *, *, #79, .F. ) ;
#17 = PERSON_AND_ORGANIZATION_ROLE ( 'design_owner' ) ;
#18 = DIRECTION ( 'NONE',  ( 0.0000000000000000000, 0.0000000000000000000, 1.000000000000000000 ) ) ;
#19 = CIRCLE ( 'NONE', #88, 12.69999999999999929 ) ;
#20 = PERSON_AND_ORGANIZATION ( #125, #115 ) ;
#21 =( GEOMETRIC_REPRESENTATION_CONTEXT ( 3 ) GLOBAL_UNCERTAINTY_ASSIGNED_CONTEXT ( ( #99 ) ) GLOBAL_UNIT_ASSIGNED_CONTEXT ( ( #117, #105, #34 ) ) REPRESENTATION_CONTEXT ( 'NONE', 'WORKASPACE' ) );
#22 = LOCAL_TIME ( 10, 5, 54.00000000000000000, #36 ) ;
#23 = DATE_AND_TIME ( #100, #84 ) ;
#24 = PLANE ( 'NONE',  #167 ) ;
#25 = DIRECTION ( 'NONE',  ( -1.000000000000000000, -0.0000000000000000000, -0.0000000000000000000 ) ) ;
#26 = CARTESIAN_POINT ( 'NONE',  ( 1.500000000000000000, 0.0000000000000000000, 0.0000000000000000000 ) ) ;
#27 = COORDINATED_UNIVERSAL_TIME_OFFSET ( 5, 0, .BEHIND. ) ;
#28 = EDGE_CURVE ( 'NONE', #45, #59, #19, .T. ) ;
#29 = ORIENTED_EDGE ( 'NONE', *, *, #75, .F. ) ;
#30 = APPROVAL_PERSON_ORGANIZATION ( #67, #4, #46 ) ;
#31 = SECURITY_CLASSIFICATION ( '', '', #73 ) ;
#32 = CARTESIAN_POINT ( 'NONE',  ( 0.0000000000000000000, 0.0000000000000000000, 0.0000000000000000000 ) ) ;
#33 = CC_DESIGN_PERSON_AND_ORGANIZATION_ASSIGNMENT ( #20, #168, ( #93 ) ) ;
#34 =( NAMED_UNIT ( * ) SI_UNIT ( $, .STERADIAN. ) SOLID_ANGLE_UNIT ( ) );
#35 = AXIS2_PLACEMENT_3D ( 'NONE', #32, #102, #103 ) ;
#36 = COORDINATED_UNIVERSAL_TIME_OFFSET ( 5, 0, .BEHIND. ) ;
#37 = CARTESIAN_POINT ( 'NONE',  ( -1.500000000000000000, 0.0000000000000000000, 12.69999999999999929 ) ) ;
#38 = LINE ( 'NONE', #39, #110 ) ;
#39 = CARTESIAN_POINT ( 'NONE',  ( 1.500000000000000000, 0.0000000000000000000, 12.69999999999999929 ) ) ;
#40 = ORIENTED_EDGE ( 'NONE', *, *, #28, .T. ) ;
#41 = CC_DESIGN_DATE_AND_TIME_ASSIGNMENT ( #86, #156, ( #31 ) ) ;
#42 = ADVANCED_FACE ( 'NONE', ( #170 ), #6, .T. ) ;
#43 = PRODUCT ( 'Web Model 14680_14680', 'Web Model 14680_14680', '', ( #160 ) ) ;
#44 = APPROVAL_PERSON_ORGANIZATION ( #148, #71, #90 ) ;
#45 = VERTEX_POINT ( 'NONE', #37 ) ;
#46 = APPROVAL_ROLE ( '' ) ;
#47 = CARTESIAN_POINT ( 'NONE',  ( 1.500000000000000000, 1.555301434917138433E-15, -12.69999999999999929 ) ) ;
#48 = DATE_AND_TIME ( #54, #112 ) ;
#49 = CARTESIAN_POINT ( 'NONE',  ( -1.500000000000000000, 0.0000000000000000000, 0.0000000000000000000 ) ) ;
#50 = DIRECTION ( 'NONE',  ( -1.000000000000000000, -0.0000000000000000000, -0.0000000000000000000 ) ) ;
#51 = APPROVAL_DATE_TIME ( #89, #58 ) ;
#52 = COORDINATED_UNIVERSAL_TIME_OFFSET ( 5, 0, .BEHIND. ) ;
#53 = EDGE_CURVE ( 'NONE', #174, #45, #38, .T. ) ;
#54 = CALENDAR_DATE ( 2020, 13, 4 ) ;
#55 = CARTESIAN_POINT ( 'NONE',  ( 1.500000000000000000, 0.0000000000000000000, 0.0000000000000000000 ) ) ;
#56 = PRODUCT_DEFINITION ( 'UNKNOWN', '', #93, #166 ) ;
#57 = CYLINDRICAL_SURFACE ( 'NONE', #149, 12.69999999999999929 ) ;
#58 = APPROVAL ( #171, 'UNSPECIFIED' ) ;
#59 = VERTEX_POINT ( 'NONE', #162 ) ;
#60 = CC_DESIGN_SECURITY_CLASSIFICATION ( #31, ( #93 ) ) ;
#61 = PERSON_AND_ORGANIZATION_ROLE ( 'design_supplier' ) ;
#62 = PLANE ( 'NONE',  #12 ) ;
#63 = DIRECTION ( 'NONE',  ( 1.000000000000000000, 0.0000000000000000000, 0.0000000000000000000 ) ) ;
#64 = EDGE_LOOP ( 'NONE', ( #16, #3, #118, #74 ) ) ;
#65 = CC_DESIGN_PERSON_AND_ORGANIZATION_ASSIGNMENT ( #163, #61, ( #93 ) ) ;
#66 = DIRECTION ( 'NONE',  ( 0.0000000000000000000, 0.0000000000000000000, -1.000000000000000000 ) ) ;
#67 = PERSON_AND_ORGANIZATION ( #125, #115 ) ;
#68 = CC_DESIGN_APPROVAL ( #58, ( #56 ) ) ;
#69 = ORIENTED_EDGE ( 'NONE', *, *, #28, .F. ) ;
#70 = DATE_AND_TIME ( #106, #22 ) ;
#71 = APPROVAL ( #72, 'UNSPECIFIED' ) ;
#72 = APPROVAL_STATUS ( 'not_yet_approved' ) ;
#73 = SECURITY_CLASSIFICATION_LEVEL ( 'unclassified' ) ;
#74 = ORIENTED_EDGE ( 'NONE', *, *, #53, .F. ) ;
#75 = EDGE_CURVE ( 'NONE', #174, #136, #145, .T. ) ;
#76 = APPLICATION_PROTOCOL_DEFINITION ( 'international standard', 'config_control_design', 1994, #128 ) ;
#77 = DIRECTION ( 'NONE',  ( 1.000000000000000000, 0.0000000000000000000, 0.0000000000000000000 ) ) ;
#78 = CIRCLE ( 'NONE', #96, 12.69999999999999929 ) ;
#79 = EDGE_CURVE ( 'NONE', #136, #174, #78, .T. ) ;
#80 = EDGE_LOOP ( 'NONE', ( #114, #139 ) ) ;
#81 = DIRECTION ( 'NONE',  ( 0.0000000000000000000, 0.0000000000000000000, -1.000000000000000000 ) ) ;
#82 = CC_DESIGN_DATE_AND_TIME_ASSIGNMENT ( #70, #101, ( #56 ) ) ;
#83 = DIRECTION ( 'NONE',  ( 1.000000000000000000, 0.0000000000000000000, 0.0000000000000000000 ) ) ;
#84 = LOCAL_TIME ( 10, 5, 54.00000000000000000, #27 ) ;
#85 = EDGE_LOOP ( 'NONE', ( #69, #161 ) ) ;
#86 = DATE_AND_TIME ( #151, #107 ) ;
#87 = ADVANCED_FACE ( 'NONE', ( #147 ), #24, .T. ) ;
#88 = AXIS2_PLACEMENT_3D ( 'NONE', #120, #83, #81 ) ;
#89 = DATE_AND_TIME ( #131, #121 ) ;
#90 = APPROVAL_ROLE ( '' ) ;
#91 = CIRCLE ( 'NONE', #104, 12.69999999999999929 ) ;
#92 = DIRECTION ( 'NONE',  ( 1.000000000000000000, 0.0000000000000000000, 0.0000000000000000000 ) ) ;
#93 = PRODUCT_DEFINITION_FORMATION_WITH_SPECIFIED_SOURCE ( 'ANY', '', #43, .NOT_KNOWN. ) ;
#94 = LINE ( 'NONE', #47, #2 ) ;
#95 = DIRECTION ( 'NONE',  ( 0.0000000000000000000, 0.0000000000000000000, 1.000000000000000000 ) ) ;
#96 = AXIS2_PLACEMENT_3D ( 'NONE', #55, #8, #15 ) ;
#97 = ORIENTED_EDGE ( 'NONE', *, *, #53, .T. ) ;
#98 = PERSON_AND_ORGANIZATION ( #125, #115 ) ;
#99 = UNCERTAINTY_MEASURE_WITH_UNIT (LENGTH_MEASURE( 1.000000000000000082E-05 ), #117, 'distance_accuracy_value', 'NONE');
#100 = CALENDAR_DATE ( 2020, 13, 4 ) ;
#101 = DATE_TIME_ROLE ( 'creation_date' ) ;
#102 = DIRECTION ( 'NONE',  ( 0.0000000000000000000, 0.0000000000000000000, 1.000000000000000000 ) ) ;
#103 = DIRECTION ( 'NONE',  ( 1.000000000000000000, 0.0000000000000000000, 0.0000000000000000000 ) ) ;
#104 = AXIS2_PLACEMENT_3D ( 'NONE', #49, #63, #157 ) ;
#105 =( NAMED_UNIT ( * ) PLANE_ANGLE_UNIT ( ) SI_UNIT ( $, .RADIAN. ) );
#106 = CALENDAR_DATE ( 2020, 13, 4 ) ;
#107 = LOCAL_TIME ( 10, 5, 54.00000000000000000, #52 ) ;
#108 = MANIFOLD_SOLID_BREP ( 'Boss-Extrude1', #150 ) ;
#109 = FACE_OUTER_BOUND ( 'NONE', #122, .T. ) ;
#110 = VECTOR ( 'NONE', #173, 1000.000000000000000 ) ;
#111 = AXIS2_PLACEMENT_3D ( 'NONE', #26, #25, #95 ) ;
#112 = LOCAL_TIME ( 10, 5, 54.00000000000000000, #10 ) ;
#113 = CC_DESIGN_APPROVAL ( #71, ( #31 ) ) ;
#114 = ORIENTED_EDGE ( 'NONE', *, *, #75, .T. ) ;
#115 = ORGANIZATION ( 'UNSPECIFIED', 'UNSPECIFIED', '' ) ;
#116 = CARTESIAN_POINT ( 'NONE',  ( 1.500000000000000000, 0.0000000000000000000, 0.0000000000000000000 ) ) ;
#117 =( LENGTH_UNIT ( ) NAMED_UNIT ( * ) SI_UNIT ( .MILLI., .METRE. ) );
#118 = ORIENTED_EDGE ( 'NONE', *, *, #142, .T. ) ;
#119 = CC_DESIGN_PERSON_AND_ORGANIZATION_ASSIGNMENT ( #11, #141, ( #56 ) ) ;
#120 = CARTESIAN_POINT ( 'NONE',  ( -1.500000000000000000, 0.0000000000000000000, 0.0000000000000000000 ) ) ;
#121 = LOCAL_TIME ( 10, 5, 54.00000000000000000, #165 ) ;
#122 = EDGE_LOOP ( 'NONE', ( #155, #29, #97, #40 ) ) ;
#123 = APPROVAL_DATE_TIME ( #48, #71 ) ;
#124 = AXIS2_PLACEMENT_3D ( 'NONE', #175, #172, #135 ) ;
#125 = PERSON ( 'UNSPECIFIED', 'UNSPECIFIED', 'UNSPECIFIED', ('UNSPECIFIED'), ('UNSPECIFIED'), ('UNSPECIFIED') ) ;
#126 = APPROVAL_STATUS ( 'not_yet_approved' ) ;
#127 = SHAPE_DEFINITION_REPRESENTATION ( #14, #7 ) ;
#128 = APPLICATION_CONTEXT ( 'configuration controlled 3d designs of mechanical parts and assemblies' ) ;
#129 = CARTESIAN_POINT ( 'NONE',  ( -1.500000000000000000, 0.0000000000000000000, 0.0000000000000000000 ) ) ;
#130 = EDGE_CURVE ( 'NONE', #136, #59, #94, .T. ) ;
#131 = CALENDAR_DATE ( 2020, 13, 4 ) ;
#132 = APPLICATION_PROTOCOL_DEFINITION ( 'international standard', 'config_control_design', 1994, #169 ) ;
#133 = PRODUCT_RELATED_PRODUCT_CATEGORY ( 'detail', '', ( #43 ) ) ;
#134 = CARTESIAN_POINT ( 'NONE',  ( 1.500000000000000000, 0.0000000000000000000, 0.0000000000000000000 ) ) ;
#135 = DIRECTION ( 'NONE',  ( 0.0000000000000000000, 0.0000000000000000000, -1.000000000000000000 ) ) ;
#136 = VERTEX_POINT ( 'NONE', #158 ) ;
#137 = APPROVAL_DATE_TIME ( #23, #4 ) ;
#138 = PERSON_AND_ORGANIZATION ( #125, #115 ) ;
#139 = ORIENTED_EDGE ( 'NONE', *, *, #79, .T. ) ;
#140 = CC_DESIGN_PERSON_AND_ORGANIZATION_ASSIGNMENT ( #138, #144, ( #31 ) ) ;
#141 = PERSON_AND_ORGANIZATION_ROLE ( 'creator' ) ;
#142 = EDGE_CURVE ( 'NONE', #59, #45, #91, .T. ) ;
#143 = DIRECTION ( 'NONE',  ( -1.000000000000000000, -0.0000000000000000000, -0.0000000000000000000 ) ) ;
#144 = PERSON_AND_ORGANIZATION_ROLE ( 'classification_officer' ) ;
#145 = CIRCLE ( 'NONE', #124, 12.69999999999999929 ) ;
#146 = DIRECTION ( 'NONE',  ( 0.0000000000000000000, 0.0000000000000000000, -1.000000000000000000 ) ) ;
#147 = FACE_OUTER_BOUND ( 'NONE', #80, .T. ) ;
#148 = PERSON_AND_ORGANIZATION ( #125, #115 ) ;
#149 = AXIS2_PLACEMENT_3D ( 'NONE', #116, #50, #18 ) ;
#150 = CLOSED_SHELL ( 'NONE', ( #42, #154, #87, #164 ) ) ;
#151 = CALENDAR_DATE ( 2020, 13, 4 ) ;
#152 = CC_DESIGN_PERSON_AND_ORGANIZATION_ASSIGNMENT ( #98, #17, ( #43 ) ) ;
#153 = APPROVAL_PERSON_ORGANIZATION ( #9, #58, #5 ) ;
#154 = ADVANCED_FACE ( 'NONE', ( #109 ), #57, .T. ) ;
#155 = ORIENTED_EDGE ( 'NONE', *, *, #130, .F. ) ;
#156 = DATE_TIME_ROLE ( 'classification_date' ) ;
#157 = DIRECTION ( 'NONE',  ( 0.0000000000000000000, 0.0000000000000000000, -1.000000000000000000 ) ) ;
#158 = CARTESIAN_POINT ( 'NONE',  ( 1.500000000000000000, 1.555301434917138433E-15, -12.69999999999999929 ) ) ;
#159 = CARTESIAN_POINT ( 'NONE',  ( 1.500000000000000000, 0.0000000000000000000, 12.69999999999999929 ) ) ;
#160 = MECHANICAL_CONTEXT ( 'NONE', #169, 'mechanical' ) ;
#161 = ORIENTED_EDGE ( 'NONE', *, *, #142, .F. ) ;
#162 = CARTESIAN_POINT ( 'NONE',  ( -1.500000000000000000, 1.555301434917138433E-15, -12.69999999999999929 ) ) ;
#163 = PERSON_AND_ORGANIZATION ( #125, #115 ) ;
#164 = ADVANCED_FACE ( 'NONE', ( #13 ), #62, .F. ) ;
#165 = COORDINATED_UNIVERSAL_TIME_OFFSET ( 5, 0, .BEHIND. ) ;
#166 = DESIGN_CONTEXT ( 'detailed design', #128, 'design' ) ;
#167 = AXIS2_PLACEMENT_3D ( 'NONE', #134, #92, #66 ) ;
#168 = PERSON_AND_ORGANIZATION_ROLE ( 'creator' ) ;
#169 = APPLICATION_CONTEXT ( 'configuration controlled 3d designs of mechanical parts and assemblies' ) ;
#170 = FACE_OUTER_BOUND ( 'NONE', #64, .T. ) ;
#171 = APPROVAL_STATUS ( 'not_yet_approved' ) ;
#172 = DIRECTION ( 'NONE',  ( 1.000000000000000000, 0.0000000000000000000, 0.0000000000000000000 ) ) ;
#173 = DIRECTION ( 'NONE',  ( -1.000000000000000000, -0.0000000000000000000, -0.0000000000000000000 ) ) ;
#174 = VERTEX_POINT ( 'NONE', #159 ) ;
#175 = CARTESIAN_POINT ( 'NONE',  ( 1.500000000000000000, 0.0000000000000000000, 0.0000000000000000000 ) ) ;
ENDSEC;
END-ISO-10303-21;
