ISO-10303-21;
HEADER;
FILE_DESCRIPTION (( 'STEP AP203' ),
    '1' );
FILE_NAME ('Web Model 62606_15795.step',
    '2020-11-03T21:56:25',
    ( '' ),
    ( '' ),
    'SwSTEP 2.0',
    'SolidWorks 2018',
    '' );
FILE_SCHEMA (( 'CONFIG_CONTROL_DESIGN' ));
ENDSEC;

DATA;
#1 = CLOSED_SHELL ( 'NONE', ( #87, #167, #17, #5 ) ) ;
#2 = CYLINDRICAL_SURFACE ( 'NONE', #10, 37.50000000000000711 ) ;
#3 =( GEOMETRIC_REPRESENTATION_CONTEXT ( 3 ) GLOBAL_UNCERTAINTY_ASSIGNED_CONTEXT ( ( #147 ) ) GLOBAL_UNIT_ASSIGNED_CONTEXT ( ( #103, #114, #65 ) ) REPRESENTATION_CONTEXT ( 'NONE', 'WORKASPACE' ) );
#4 = APPROVAL ( #34, 'UNSPECIFIED' ) ;
#5 = ADVANCED_FACE ( 'NONE', ( #118 ), #6, .F. ) ;
#6 = PLANE ( 'NONE',  #37 ) ;
#7 = APPROVAL_ROLE ( '' ) ;
#8 = DIRECTION ( 'NONE',  ( -0.0000000000000000000, -0.0000000000000000000, -1.000000000000000000 ) ) ;
#9 = DIRECTION ( 'NONE',  ( 1.000000000000000000, 0.0000000000000000000, 0.0000000000000000000 ) ) ;
#10 = AXIS2_PLACEMENT_3D ( 'NONE', #138, #8, #21 ) ;
#11 = AXIS2_PLACEMENT_3D ( 'NONE', #129, #38, #45 ) ;
#12 = DATE_TIME_ROLE ( 'classification_date' ) ;
#13 = SECURITY_CLASSIFICATION_LEVEL ( 'unclassified' ) ;
#14 = PRODUCT_DEFINITION_FORMATION_WITH_SPECIFIED_SOURCE ( 'ANY', '', #93, .NOT_KNOWN. ) ;
#15 = VERTEX_POINT ( 'NONE', #43 ) ;
#16 = ORIENTED_EDGE ( 'NONE', *, *, #76, .T. ) ;
#17 = ADVANCED_FACE ( 'NONE', ( #97 ), #92, .T. ) ;
#18 = CARTESIAN_POINT ( 'NONE',  ( -37.50000000000000711, 0.0000000000000000000, 4.000000000000000000 ) ) ;
#19 = PERSON_AND_ORGANIZATION ( #64, #81 ) ;
#20 = APPROVAL_ROLE ( '' ) ;
#21 = DIRECTION ( 'NONE',  ( -1.000000000000000000, 0.0000000000000000000, 0.0000000000000000000 ) ) ;
#22 = ORIENTED_EDGE ( 'NONE', *, *, #119, .F. ) ;
#23 = CALENDAR_DATE ( 2020, 3, 11 ) ;
#24 = LOCAL_TIME ( 16, 56, 25.00000000000000000, #173 ) ;
#25 = EDGE_CURVE ( 'NONE', #155, #15, #50, .T. ) ;
#26 = PERSON_AND_ORGANIZATION_ROLE ( 'creator' ) ;
#27 = LINE ( 'NONE', #73, #44 ) ;
#28 = PRODUCT_DEFINITION ( 'UNKNOWN', '', #14, #98 ) ;
#29 = APPROVAL ( #95, 'UNSPECIFIED' ) ;
#30 = PERSON_AND_ORGANIZATION ( #64, #81 ) ;
#31 = CARTESIAN_POINT ( 'NONE',  ( 0.0000000000000000000, 0.0000000000000000000, 0.0000000000000000000 ) ) ;
#32 = EDGE_CURVE ( 'NONE', #132, #121, #77, .T. ) ;
#33 = LOCAL_TIME ( 16, 56, 25.00000000000000000, #151 ) ;
#34 = APPROVAL_STATUS ( 'not_yet_approved' ) ;
#35 = APPROVAL_DATE_TIME ( #160, #29 ) ;
#36 = DATE_AND_TIME ( #89, #40 ) ;
#37 = AXIS2_PLACEMENT_3D ( 'NONE', #136, #108, #85 ) ;
#38 = DIRECTION ( 'NONE',  ( 0.0000000000000000000, 0.0000000000000000000, 1.000000000000000000 ) ) ;
#39 = CYLINDRICAL_SURFACE ( 'NONE', #156, 37.50000000000000711 ) ;
#40 = LOCAL_TIME ( 16, 56, 25.00000000000000000, #75 ) ;
#41 = CC_DESIGN_APPROVAL ( #29, ( #174 ) ) ;
#42 = SHAPE_DEFINITION_REPRESENTATION ( #99, #162 ) ;
#43 = CARTESIAN_POINT ( 'NONE',  ( 37.50000000000000711, 4.592425496802575156E-15, 4.000000000000000000 ) ) ;
#44 = VECTOR ( 'NONE', #104, 1000.000000000000000 ) ;
#45 = DIRECTION ( 'NONE',  ( 1.000000000000000000, 0.0000000000000000000, -0.0000000000000000000 ) ) ;
#46 = FACE_OUTER_BOUND ( 'NONE', #74, .T. ) ;
#47 = CARTESIAN_POINT ( 'NONE',  ( 0.0000000000000000000, 0.0000000000000000000, 0.0000000000000000000 ) ) ;
#48 = DIRECTION ( 'NONE',  ( 0.0000000000000000000, 0.0000000000000000000, 1.000000000000000000 ) ) ;
#49 = DIRECTION ( 'NONE',  ( 0.0000000000000000000, 0.0000000000000000000, 1.000000000000000000 ) ) ;
#50 = CIRCLE ( 'NONE', #172, 37.50000000000000711 ) ;
#51 = CC_DESIGN_SECURITY_CLASSIFICATION ( #174, ( #14 ) ) ;
#52 = DIRECTION ( 'NONE',  ( 0.0000000000000000000, 0.0000000000000000000, 1.000000000000000000 ) ) ;
#53 = CC_DESIGN_APPROVAL ( #4, ( #28 ) ) ;
#54 = ORIENTED_EDGE ( 'NONE', *, *, #32, .F. ) ;
#55 = CIRCLE ( 'NONE', #135, 37.50000000000000711 ) ;
#56 = CIRCLE ( 'NONE', #163, 37.50000000000000711 ) ;
#57 = APPROVAL ( #70, 'UNSPECIFIED' ) ;
#58 = CC_DESIGN_PERSON_AND_ORGANIZATION_ASSIGNMENT ( #125, #105, ( #174 ) ) ;
#59 = APPROVAL_DATE_TIME ( #36, #4 ) ;
#60 = APPLICATION_CONTEXT ( 'configuration controlled 3d designs of mechanical parts and assemblies' ) ;
#61 = DIRECTION ( 'NONE',  ( -0.0000000000000000000, -0.0000000000000000000, -1.000000000000000000 ) ) ;
#62 = CC_DESIGN_PERSON_AND_ORGANIZATION_ASSIGNMENT ( #146, #154, ( #28 ) ) ;
#63 = CARTESIAN_POINT ( 'NONE',  ( 0.0000000000000000000, 0.0000000000000000000, 0.0000000000000000000 ) ) ;
#64 = PERSON ( 'UNSPECIFIED', 'UNSPECIFIED', 'UNSPECIFIED', ('UNSPECIFIED'), ('UNSPECIFIED'), ('UNSPECIFIED') ) ;
#65 =( NAMED_UNIT ( * ) SI_UNIT ( $, .STERADIAN. ) SOLID_ANGLE_UNIT ( ) );
#66 = DATE_AND_TIME ( #131, #24 ) ;
#67 = CC_DESIGN_APPROVAL ( #57, ( #14 ) ) ;
#68 = APPROVAL_PERSON_ORGANIZATION ( #109, #4, #7 ) ;
#69 = CC_DESIGN_PERSON_AND_ORGANIZATION_ASSIGNMENT ( #107, #80, ( #14 ) ) ;
#70 = APPROVAL_STATUS ( 'not_yet_approved' ) ;
#71 = ORIENTED_EDGE ( 'NONE', *, *, #110, .F. ) ;
#72 = MECHANICAL_CONTEXT ( 'NONE', #60, 'mechanical' ) ;
#73 = CARTESIAN_POINT ( 'NONE',  ( 37.50000000000000711, 4.592425496802575156E-15, 4.000000000000000000 ) ) ;
#74 = EDGE_LOOP ( 'NONE', ( #71, #133, #79, #106 ) ) ;
#75 = COORDINATED_UNIVERSAL_TIME_OFFSET ( 5, 0, .BEHIND. ) ;
#76 = EDGE_CURVE ( 'NONE', #15, #155, #56, .T. ) ;
#77 = CIRCLE ( 'NONE', #144, 37.50000000000000711 ) ;
#78 = CC_DESIGN_DATE_AND_TIME_ASSIGNMENT ( #111, #12, ( #174 ) ) ;
#79 = ORIENTED_EDGE ( 'NONE', *, *, #119, .T. ) ;
#80 = PERSON_AND_ORGANIZATION_ROLE ( 'design_supplier' ) ;
#81 = ORGANIZATION ( 'UNSPECIFIED', 'UNSPECIFIED', '' ) ;
#82 = PRODUCT_RELATED_PRODUCT_CATEGORY ( 'detail', '', ( #93 ) ) ;
#83 = ORIENTED_EDGE ( 'NONE', *, *, #149, .F. ) ;
#84 = MANIFOLD_SOLID_BREP ( 'Extrude1', #1 ) ;
#85 = DIRECTION ( 'NONE',  ( 1.000000000000000000, 0.0000000000000000000, -0.0000000000000000000 ) ) ;
#86 = ORIENTED_EDGE ( 'NONE', *, *, #110, .T. ) ;
#87 = ADVANCED_FACE ( 'NONE', ( #120 ), #2, .T. ) ;
#88 = CARTESIAN_POINT ( 'NONE',  ( -37.50000000000000711, 0.0000000000000000000, 0.0000000000000000000 ) ) ;
#89 = CALENDAR_DATE ( 2020, 3, 11 ) ;
#90 = CARTESIAN_POINT ( 'NONE',  ( 0.0000000000000000000, 0.0000000000000000000, 4.000000000000000000 ) ) ;
#91 = APPLICATION_PROTOCOL_DEFINITION ( 'international standard', 'config_control_design', 1994, #170 ) ;
#92 = PLANE ( 'NONE',  #11 ) ;
#93 = PRODUCT ( 'Web Model 62606_15795', 'Web Model 62606_15795', '', ( #72 ) ) ;
#94 = EDGE_LOOP ( 'NONE', ( #143, #86, #166, #22 ) ) ;
#95 = APPROVAL_STATUS ( 'not_yet_approved' ) ;
#96 = APPROVAL_ROLE ( '' ) ;
#97 = FACE_OUTER_BOUND ( 'NONE', #100, .T. ) ;
#98 = DESIGN_CONTEXT ( 'detailed design', #170, 'design' ) ;
#99 = PRODUCT_DEFINITION_SHAPE ( 'NONE', 'NONE',  #28 ) ;
#100 = EDGE_LOOP ( 'NONE', ( #123, #16 ) ) ;
#101 = DIRECTION ( 'NONE',  ( 0.0000000000000000000, 0.0000000000000000000, 1.000000000000000000 ) ) ;
#102 = CARTESIAN_POINT ( 'NONE',  ( 0.0000000000000000000, 0.0000000000000000000, 4.000000000000000000 ) ) ;
#103 =( LENGTH_UNIT ( ) NAMED_UNIT ( * ) SI_UNIT ( .MILLI., .METRE. ) );
#104 = DIRECTION ( 'NONE',  ( -0.0000000000000000000, -0.0000000000000000000, -1.000000000000000000 ) ) ;
#105 = PERSON_AND_ORGANIZATION_ROLE ( 'classification_officer' ) ;
#106 = ORIENTED_EDGE ( 'NONE', *, *, #32, .T. ) ;
#107 = PERSON_AND_ORGANIZATION ( #64, #81 ) ;
#108 = DIRECTION ( 'NONE',  ( 0.0000000000000000000, 0.0000000000000000000, 1.000000000000000000 ) ) ;
#109 = PERSON_AND_ORGANIZATION ( #64, #81 ) ;
#110 = EDGE_CURVE ( 'NONE', #15, #121, #27, .T. ) ;
#111 = DATE_AND_TIME ( #150, #117 ) ;
#112 = CARTESIAN_POINT ( 'NONE',  ( -37.50000000000000711, 0.0000000000000000000, 4.000000000000000000 ) ) ;
#113 = CC_DESIGN_DATE_AND_TIME_ASSIGNMENT ( #137, #171, ( #28 ) ) ;
#114 =( NAMED_UNIT ( * ) PLANE_ANGLE_UNIT ( ) SI_UNIT ( $, .RADIAN. ) );
#115 = EDGE_LOOP ( 'NONE', ( #54, #83 ) ) ;
#116 = CARTESIAN_POINT ( 'NONE',  ( 0.0000000000000000000, 0.0000000000000000000, 4.000000000000000000 ) ) ;
#117 = LOCAL_TIME ( 16, 56, 25.00000000000000000, #164 ) ;
#118 = FACE_OUTER_BOUND ( 'NONE', #115, .T. ) ;
#119 = EDGE_CURVE ( 'NONE', #155, #132, #161, .T. ) ;
#120 = FACE_OUTER_BOUND ( 'NONE', #94, .T. ) ;
#121 = VERTEX_POINT ( 'NONE', #153 ) ;
#122 = CC_DESIGN_PERSON_AND_ORGANIZATION_ASSIGNMENT ( #19, #26, ( #14 ) ) ;
#123 = ORIENTED_EDGE ( 'NONE', *, *, #25, .T. ) ;
#124 = PERSON_AND_ORGANIZATION ( #64, #81 ) ;
#125 = PERSON_AND_ORGANIZATION ( #64, #81 ) ;
#126 = DIRECTION ( 'NONE',  ( 0.0000000000000000000, 0.0000000000000000000, 1.000000000000000000 ) ) ;
#127 = DIRECTION ( 'NONE',  ( -0.0000000000000000000, -0.0000000000000000000, -1.000000000000000000 ) ) ;
#128 = DIRECTION ( 'NONE',  ( 1.000000000000000000, 0.0000000000000000000, 0.0000000000000000000 ) ) ;
#129 = CARTESIAN_POINT ( 'NONE',  ( 0.0000000000000000000, 0.0000000000000000000, 4.000000000000000000 ) ) ;
#130 = APPROVAL_PERSON_ORGANIZATION ( #124, #29, #96 ) ;
#131 = CALENDAR_DATE ( 2020, 3, 11 ) ;
#132 = VERTEX_POINT ( 'NONE', #88 ) ;
#133 = ORIENTED_EDGE ( 'NONE', *, *, #25, .F. ) ;
#134 = APPROVAL_PERSON_ORGANIZATION ( #30, #57, #20 ) ;
#135 = AXIS2_PLACEMENT_3D ( 'NONE', #31, #48, #139 ) ;
#136 = CARTESIAN_POINT ( 'NONE',  ( 0.0000000000000000000, 0.0000000000000000000, 0.0000000000000000000 ) ) ;
#137 = DATE_AND_TIME ( #175, #145 ) ;
#138 = CARTESIAN_POINT ( 'NONE',  ( 0.0000000000000000000, 0.0000000000000000000, 4.000000000000000000 ) ) ;
#139 = DIRECTION ( 'NONE',  ( 1.000000000000000000, 0.0000000000000000000, 0.0000000000000000000 ) ) ;
#140 = VECTOR ( 'NONE', #127, 1000.000000000000000 ) ;
#141 = APPLICATION_PROTOCOL_DEFINITION ( 'international standard', 'config_control_design', 1994, #60 ) ;
#142 = DIRECTION ( 'NONE',  ( 1.000000000000000000, 0.0000000000000000000, 0.0000000000000000000 ) ) ;
#143 = ORIENTED_EDGE ( 'NONE', *, *, #76, .F. ) ;
#144 = AXIS2_PLACEMENT_3D ( 'NONE', #47, #52, #142 ) ;
#145 = LOCAL_TIME ( 16, 56, 25.00000000000000000, #168 ) ;
#146 = PERSON_AND_ORGANIZATION ( #64, #81 ) ;
#147 = UNCERTAINTY_MEASURE_WITH_UNIT (LENGTH_MEASURE( 1.000000000000000082E-05 ), #103, 'distance_accuracy_value', 'NONE');
#148 = PERSON_AND_ORGANIZATION ( #64, #81 ) ;
#149 = EDGE_CURVE ( 'NONE', #121, #132, #55, .T. ) ;
#150 = CALENDAR_DATE ( 2020, 3, 11 ) ;
#151 = COORDINATED_UNIVERSAL_TIME_OFFSET ( 5, 0, .BEHIND. ) ;
#152 = CC_DESIGN_PERSON_AND_ORGANIZATION_ASSIGNMENT ( #148, #159, ( #93 ) ) ;
#153 = CARTESIAN_POINT ( 'NONE',  ( 37.50000000000000711, 4.592425496802575156E-15, 0.0000000000000000000 ) ) ;
#154 = PERSON_AND_ORGANIZATION_ROLE ( 'creator' ) ;
#155 = VERTEX_POINT ( 'NONE', #112 ) ;
#156 = AXIS2_PLACEMENT_3D ( 'NONE', #102, #61, #157 ) ;
#157 = DIRECTION ( 'NONE',  ( -1.000000000000000000, 0.0000000000000000000, 0.0000000000000000000 ) ) ;
#158 = DIRECTION ( 'NONE',  ( 1.000000000000000000, 0.0000000000000000000, 0.0000000000000000000 ) ) ;
#159 = PERSON_AND_ORGANIZATION_ROLE ( 'design_owner' ) ;
#160 = DATE_AND_TIME ( #23, #33 ) ;
#161 = LINE ( 'NONE', #18, #140 ) ;
#162 = ADVANCED_BREP_SHAPE_REPRESENTATION ( 'Web Model 62606_15795', ( #84, #169 ), #3 ) ;
#163 = AXIS2_PLACEMENT_3D ( 'NONE', #116, #101, #158 ) ;
#164 = COORDINATED_UNIVERSAL_TIME_OFFSET ( 5, 0, .BEHIND. ) ;
#165 = APPROVAL_DATE_TIME ( #66, #57 ) ;
#166 = ORIENTED_EDGE ( 'NONE', *, *, #149, .T. ) ;
#167 = ADVANCED_FACE ( 'NONE', ( #46 ), #39, .T. ) ;
#168 = COORDINATED_UNIVERSAL_TIME_OFFSET ( 5, 0, .BEHIND. ) ;
#169 = AXIS2_PLACEMENT_3D ( 'NONE', #63, #126, #128 ) ;
#170 = APPLICATION_CONTEXT ( 'configuration controlled 3d designs of mechanical parts and assemblies' ) ;
#171 = DATE_TIME_ROLE ( 'creation_date' ) ;
#172 = AXIS2_PLACEMENT_3D ( 'NONE', #90, #49, #9 ) ;
#173 = COORDINATED_UNIVERSAL_TIME_OFFSET ( 5, 0, .BEHIND. ) ;
#174 = SECURITY_CLASSIFICATION ( '', '', #13 ) ;
#175 = CALENDAR_DATE ( 2020, 3, 11 ) ;
ENDSEC;
END-ISO-10303-21;
