ISO-10303-21;
HEADER;
FILE_DESCRIPTION (( 'STEP AP203' ),
    '1' );
FILE_NAME ('Web Model 85291_85294.step',
    '2017-05-01T20:07:49',
    ( '' ),
    ( '' ),
    'SwSTEP 2.0',
    'SolidWorks 2016',
    '' );
FILE_SCHEMA (( 'CONFIG_CONTROL_DESIGN' ));
ENDSEC;

DATA;
#1 = VECTOR ( 'NONE', #95, 1000.000000000000000 ) ;
#2 = COORDINATED_UNIVERSAL_TIME_OFFSET ( 5, 0, .BEHIND. ) ;
#3 = ORIENTED_EDGE ( 'NONE', *, *, #48, .T. ) ;
#4 = ADVANCED_BREP_SHAPE_REPRESENTATION ( 'Web Model 85291_85294', ( #198, #137 ), #153 ) ;
#5 = CLOSED_SHELL ( 'NONE', ( #36, #126, #189, #96, #20, #193 ) ) ;
#6 = APPROVAL ( #105, 'UNSPECIFIED' ) ;
#7 = ORIENTED_EDGE ( 'NONE', *, *, #145, .F. ) ;
#8 = CARTESIAN_POINT ( 'NONE',  ( 0.0000000000000000000, 0.0000000000000000000, 0.0000000000000000000 ) ) ;
#9 = ORIENTED_EDGE ( 'NONE', *, *, #81, .T. ) ;
#10 = ORIENTED_EDGE ( 'NONE', *, *, #81, .F. ) ;
#11 = EDGE_LOOP ( 'NONE', ( #123, #183, #217, #62 ) ) ;
#12 = VERTEX_POINT ( 'NONE', #80 ) ;
#13 = ORIENTED_EDGE ( 'NONE', *, *, #226, .F. ) ;
#14 = CARTESIAN_POINT ( 'NONE',  ( 12.49999999999999800, 12.49999999999999600, 1.000000000000000000 ) ) ;
#15 = EDGE_LOOP ( 'NONE', ( #16, #10, #139, #172 ) ) ;
#16 = ORIENTED_EDGE ( 'NONE', *, *, #77, .T. ) ;
#17 = EDGE_CURVE ( 'NONE', #49, #229, #171, .T. ) ;
#18 = ORIENTED_EDGE ( 'NONE', *, *, #150, .T. ) ;
#19 = PERSON_AND_ORGANIZATION_ROLE ( 'creator' ) ;
#20 = ADVANCED_FACE ( 'NONE', ( #41 ), #181, .T. ) ;
#21 = LINE ( 'NONE', #58, #1 ) ;
#22 = ORIENTED_EDGE ( 'NONE', *, *, #150, .F. ) ;
#23 = PERSON_AND_ORGANIZATION ( #114, #187 ) ;
#24 = CC_DESIGN_PERSON_AND_ORGANIZATION_ASSIGNMENT ( #26, #165, ( #103 ) ) ;
#25 = CC_DESIGN_APPROVAL ( #152, ( #117 ) ) ;
#26 = PERSON_AND_ORGANIZATION ( #114, #187 ) ;
#27 = EDGE_CURVE ( 'NONE', #53, #82, #158, .T. ) ;
#28 = ORIENTED_EDGE ( 'NONE', *, *, #27, .F. ) ;
#29 = APPLICATION_PROTOCOL_DEFINITION ( 'international standard', 'config_control_design', 1994, #120 ) ;
#30 = ORIENTED_EDGE ( 'NONE', *, *, #48, .F. ) ;
#31 =( NAMED_UNIT ( * ) SI_UNIT ( $, .STERADIAN. ) SOLID_ANGLE_UNIT ( ) );
#32 = VECTOR ( 'NONE', #194, 1000.000000000000000 ) ;
#33 = DIRECTION ( 'NONE',  ( 0.0000000000000000000, -0.0000000000000000000, 1.000000000000000000 ) ) ;
#34 = PERSON_AND_ORGANIZATION_ROLE ( 'design_supplier' ) ;
#35 = VECTOR ( 'NONE', #136, 1000.000000000000000 ) ;
#36 = ADVANCED_FACE ( 'NONE', ( #218 ), #214, .F. ) ;
#37 = AXIS2_PLACEMENT_3D ( 'NONE', #78, #59, #191 ) ;
#38 = DATE_AND_TIME ( #144, #220 ) ;
#39 = DIRECTION ( 'NONE',  ( -1.000000000000000000, -1.387778780781445700E-016, 0.0000000000000000000 ) ) ;
#40 = PERSON_AND_ORGANIZATION ( #114, #187 ) ;
#41 = FACE_OUTER_BOUND ( 'NONE', #11, .T. ) ;
#42 = MECHANICAL_CONTEXT ( 'NONE', #120, 'mechanical' ) ;
#43 = DIRECTION ( 'NONE',  ( -0.0000000000000000000, -0.0000000000000000000, -1.000000000000000000 ) ) ;
#44 = LINE ( 'NONE', #122, #91 ) ;
#45 = ORIENTED_EDGE ( 'NONE', *, *, #17, .F. ) ;
#46 = SECURITY_CLASSIFICATION_LEVEL ( 'unclassified' ) ;
#47 = DIRECTION ( 'NONE',  ( -1.000000000000000000, -0.0000000000000000000, -0.0000000000000000000 ) ) ;
#48 = EDGE_CURVE ( 'NONE', #82, #113, #208, .T. ) ;
#49 = VERTEX_POINT ( 'NONE', #212 ) ;
#50 = ORIENTED_EDGE ( 'NONE', *, *, #77, .F. ) ;
#51 = CARTESIAN_POINT ( 'NONE',  ( -12.50000000000000200, 12.49999999999999600, 1.000000000000000000 ) ) ;
#52 = VECTOR ( 'NONE', #138, 1000.000000000000000 ) ;
#53 = VERTEX_POINT ( 'NONE', #143 ) ;
#54 = DIRECTION ( 'NONE',  ( 1.000000000000000000, 0.0000000000000000000, 0.0000000000000000000 ) ) ;
#55 = EDGE_CURVE ( 'NONE', #169, #113, #21, .T. ) ;
#56 = DIRECTION ( 'NONE',  ( 0.0000000000000000000, 1.000000000000000000, 0.0000000000000000000 ) ) ;
#57 = EDGE_CURVE ( 'NONE', #229, #169, #167, .T. ) ;
#58 = CARTESIAN_POINT ( 'NONE',  ( -12.50000000000000200, 12.49999999999999600, 1.000000000000000000 ) ) ;
#59 = DIRECTION ( 'NONE',  ( -0.0000000000000000000, 0.0000000000000000000, 1.000000000000000000 ) ) ;
#60 = LINE ( 'NONE', #210, #200 ) ;
#61 = CALENDAR_DATE ( 2017, 1, 5 ) ;
#62 = ORIENTED_EDGE ( 'NONE', *, *, #145, .T. ) ;
#63 = DIRECTION ( 'NONE',  ( 1.000000000000000000, 0.0000000000000000000, 0.0000000000000000000 ) ) ;
#64 = CC_DESIGN_SECURITY_CLASSIFICATION ( #117, ( #199 ) ) ;
#65 = DIRECTION ( 'NONE',  ( -1.000000000000000000, -0.0000000000000000000, -0.0000000000000000000 ) ) ;
#66 = AXIS2_PLACEMENT_3D ( 'NONE', #206, #110, #98 ) ;
#67 = DATE_AND_TIME ( #166, #237 ) ;
#68 = VECTOR ( 'NONE', #164, 1000.000000000000000 ) ;
#69 = CALENDAR_DATE ( 2017, 1, 5 ) ;
#70 = CARTESIAN_POINT ( 'NONE',  ( -12.50000000000000200, 12.49999999999999600, -1.000000000000000000 ) ) ;
#71 = EDGE_LOOP ( 'NONE', ( #28, #156, #50, #30 ) ) ;
#72 = DIRECTION ( 'NONE',  ( 0.0000000000000000000, -1.000000000000000000, 0.0000000000000000000 ) ) ;
#73 = ORIENTED_EDGE ( 'NONE', *, *, #226, .T. ) ;
#74 = VERTEX_POINT ( 'NONE', #173 ) ;
#75 = UNCERTAINTY_MEASURE_WITH_UNIT (LENGTH_MEASURE( 1.000000000000000100E-005 ), #222, 'distance_accuracy_value', 'NONE');
#76 = DATE_TIME_ROLE ( 'creation_date' ) ;
#77 = EDGE_CURVE ( 'NONE', #113, #74, #107, .T. ) ;
#78 = CARTESIAN_POINT ( 'NONE',  ( 0.0000000000000000000, 0.0000000000000000000, 1.000000000000000000 ) ) ;
#79 = PLANE ( 'NONE',  #66 ) ;
#80 = CARTESIAN_POINT ( 'NONE',  ( -12.49999999999999800, -12.50000000000000200, 1.000000000000000000 ) ) ;
#81 = EDGE_CURVE ( 'NONE', #12, #74, #60, .T. ) ;
#82 = VERTEX_POINT ( 'NONE', #196 ) ;
#83 = COORDINATED_UNIVERSAL_TIME_OFFSET ( 5, 0, .BEHIND. ) ;
#84 = LOCAL_TIME ( 16, 7, 49.00000000000000000, #182 ) ;
#85 = APPROVAL_ROLE ( '' ) ;
#86 = LINE ( 'NONE', #185, #35 ) ;
#87 = PLANE ( 'NONE',  #170 ) ;
#88 = CC_DESIGN_APPROVAL ( #132, ( #103 ) ) ;
#89 = EDGE_LOOP ( 'NONE', ( #3, #184, #188, #73 ) ) ;
#90 = PRODUCT ( 'Web Model 85291_85294', 'Web Model 85291_85294', '', ( #42 ) ) ;
#91 = VECTOR ( 'NONE', #177, 1000.000000000000000 ) ;
#92 = PERSON_AND_ORGANIZATION ( #114, #187 ) ;
#93 = EDGE_LOOP ( 'NONE', ( #201, #13, #45, #18 ) ) ;
#94 = APPLICATION_PROTOCOL_DEFINITION ( 'international standard', 'config_control_design', 1994, #216 ) ;
#95 = DIRECTION ( 'NONE',  ( -0.0000000000000000000, -0.0000000000000000000, -1.000000000000000000 ) ) ;
#96 = ADVANCED_FACE ( 'NONE', ( #154 ), #87, .F. ) ;
#97 = CARTESIAN_POINT ( 'NONE',  ( -12.50000000000000200, 12.49999999999999600, -1.000000000000000000 ) ) ;
#98 = DIRECTION ( 'NONE',  ( -1.387778780781445700E-016, 1.000000000000000000, 0.0000000000000000000 ) ) ;
#99 = FACE_OUTER_BOUND ( 'NONE', #71, .T. ) ;
#100 = APPROVAL_PERSON_ORGANIZATION ( #192, #152, #121 ) ;
#101 = CC_DESIGN_DATE_AND_TIME_ASSIGNMENT ( #38, #233, ( #117 ) ) ;
#102 = PERSON_AND_ORGANIZATION_ROLE ( 'design_owner' ) ;
#103 = PRODUCT_DEFINITION ( 'UNKNOWN', '', #199, #151 ) ;
#104 = ORIENTED_EDGE ( 'NONE', *, *, #128, .T. ) ;
#105 = APPROVAL_STATUS ( 'not_yet_approved' ) ;
#106 = COORDINATED_UNIVERSAL_TIME_OFFSET ( 5, 0, .BEHIND. ) ;
#107 = LINE ( 'NONE', #97, #52 ) ;
#108 = PRODUCT_DEFINITION_SHAPE ( 'NONE', 'NONE',  #103 ) ;
#109 = EDGE_CURVE ( 'NONE', #169, #12, #162, .T. ) ;
#110 = DIRECTION ( 'NONE',  ( 1.000000000000000000, 1.387778780781445700E-016, -0.0000000000000000000 ) ) ;
#111 = CC_DESIGN_PERSON_AND_ORGANIZATION_ASSIGNMENT ( #178, #175, ( #117 ) ) ;
#112 = VECTOR ( 'NONE', #47, 1000.000000000000000 ) ;
#113 = VERTEX_POINT ( 'NONE', #127 ) ;
#114 = PERSON ( 'UNSPECIFIED', 'UNSPECIFIED', 'UNSPECIFIED', ('UNSPECIFIED'), ('UNSPECIFIED'), ('UNSPECIFIED') ) ;
#115 = CARTESIAN_POINT ( 'NONE',  ( 12.50000000000000200, -12.50000000000000200, 1.000000000000000000 ) ) ;
#116 = CARTESIAN_POINT ( 'NONE',  ( -12.49999999999999800, -12.50000000000000200, -1.000000000000000000 ) ) ;
#117 = SECURITY_CLASSIFICATION ( '', '', #46 ) ;
#118 = CARTESIAN_POINT ( 'NONE',  ( 0.0000000000000000000, 0.0000000000000000000, -1.000000000000000000 ) ) ;
#119 = CC_DESIGN_PERSON_AND_ORGANIZATION_ASSIGNMENT ( #92, #102, ( #90 ) ) ;
#120 = APPLICATION_CONTEXT ( 'configuration controlled 3d designs of mechanical parts and assemblies' ) ;
#121 = APPROVAL_ROLE ( '' ) ;
#122 = CARTESIAN_POINT ( 'NONE',  ( -12.49999999999999800, -12.50000000000000200, 1.000000000000000000 ) ) ;
#123 = ORIENTED_EDGE ( 'NONE', *, *, #17, .T. ) ;
#124 = DIRECTION ( 'NONE',  ( -0.0000000000000000000, 0.0000000000000000000, 1.000000000000000000 ) ) ;
#125 = APPROVAL_DATE_TIME ( #209, #152 ) ;
#126 = ADVANCED_FACE ( 'NONE', ( #234 ), #204, .F. ) ;
#127 = CARTESIAN_POINT ( 'NONE',  ( -12.50000000000000200, 12.49999999999999600, -1.000000000000000000 ) ) ;
#128 = EDGE_CURVE ( 'NONE', #74, #53, #190, .T. ) ;
#129 = PERSON_AND_ORGANIZATION ( #114, #187 ) ;
#130 = CARTESIAN_POINT ( 'NONE',  ( -12.50000000000000200, 12.49999999999999600, 1.000000000000000000 ) ) ;
#131 = CARTESIAN_POINT ( 'NONE',  ( -12.50000000000000200, 12.49999999999999600, 1.000000000000000000 ) ) ;
#132 = APPROVAL ( #230, 'UNSPECIFIED' ) ;
#133 = APPROVAL_DATE_TIME ( #213, #132 ) ;
#134 = AXIS2_PLACEMENT_3D ( 'NONE', #14, #39, #224 ) ;
#135 = CC_DESIGN_PERSON_AND_ORGANIZATION_ASSIGNMENT ( #23, #34, ( #199 ) ) ;
#136 = DIRECTION ( 'NONE',  ( -0.0000000000000000000, -0.0000000000000000000, -1.000000000000000000 ) ) ;
#137 = AXIS2_PLACEMENT_3D ( 'NONE', #8, #180, #54 ) ;
#138 = DIRECTION ( 'NONE',  ( 1.387778780781445700E-016, -1.000000000000000000, 0.0000000000000000000 ) ) ;
#139 = ORIENTED_EDGE ( 'NONE', *, *, #109, .F. ) ;
#140 = DIRECTION ( 'NONE',  ( -0.0000000000000000000, -0.0000000000000000000, -1.000000000000000000 ) ) ;
#141 = CARTESIAN_POINT ( 'NONE',  ( -12.49999999999999800, -12.50000000000000200, 1.000000000000000000 ) ) ;
#142 = AXIS2_PLACEMENT_3D ( 'NONE', #118, #124, #235 ) ;
#143 = CARTESIAN_POINT ( 'NONE',  ( 12.50000000000000200, -12.50000000000000200, -1.000000000000000000 ) ) ;
#144 = CALENDAR_DATE ( 2017, 1, 5 ) ;
#145 = EDGE_CURVE ( 'NONE', #12, #49, #44, .T. ) ;
#146 = VECTOR ( 'NONE', #65, 1000.000000000000000 ) ;
#147 = DATE_AND_TIME ( #223, #84 ) ;
#148 = DIRECTION ( 'NONE',  ( 0.0000000000000000000, -0.0000000000000000000, -1.000000000000000000 ) ) ;
#149 = LINE ( 'NONE', #115, #225 ) ;
#150 = EDGE_CURVE ( 'NONE', #49, #53, #149, .T. ) ;
#151 = DESIGN_CONTEXT ( 'detailed design', #216, 'design' ) ;
#152 = APPROVAL ( #160, 'UNSPECIFIED' ) ;
#153 =( GEOMETRIC_REPRESENTATION_CONTEXT ( 3 ) GLOBAL_UNCERTAINTY_ASSIGNED_CONTEXT ( ( #75 ) ) GLOBAL_UNIT_ASSIGNED_CONTEXT ( ( #222, #202, #31 ) ) REPRESENTATION_CONTEXT ( 'NONE', 'WORKASPACE' ) );
#154 = FACE_OUTER_BOUND ( 'NONE', #203, .T. ) ;
#155 = APPROVAL_PERSON_ORGANIZATION ( #228, #132, #85 ) ;
#156 = ORIENTED_EDGE ( 'NONE', *, *, #128, .F. ) ;
#157 = CC_DESIGN_PERSON_AND_ORGANIZATION_ASSIGNMENT ( #129, #19, ( #199 ) ) ;
#158 = LINE ( 'NONE', #207, #32 ) ;
#159 = CC_DESIGN_APPROVAL ( #6, ( #199 ) ) ;
#160 = APPROVAL_STATUS ( 'not_yet_approved' ) ;
#161 = APPROVAL_ROLE ( '' ) ;
#162 = LINE ( 'NONE', #130, #197 ) ;
#163 = LOCAL_TIME ( 16, 7, 49.00000000000000000, #236 ) ;
#164 = DIRECTION ( 'NONE',  ( -1.387778780781445700E-016, 1.000000000000000000, -0.0000000000000000000 ) ) ;
#165 = PERSON_AND_ORGANIZATION_ROLE ( 'creator' ) ;
#166 = CALENDAR_DATE ( 2017, 1, 5 ) ;
#167 = LINE ( 'NONE', #51, #112 ) ;
#168 = LOCAL_TIME ( 16, 7, 49.00000000000000000, #2 ) ;
#169 = VERTEX_POINT ( 'NONE', #221 ) ;
#170 = AXIS2_PLACEMENT_3D ( 'NONE', #141, #56, #33 ) ;
#171 = LINE ( 'NONE', #231, #68 ) ;
#172 = ORIENTED_EDGE ( 'NONE', *, *, #55, .T. ) ;
#173 = CARTESIAN_POINT ( 'NONE',  ( -12.49999999999999800, -12.50000000000000200, -1.000000000000000000 ) ) ;
#174 = AXIS2_PLACEMENT_3D ( 'NONE', #131, #72, #148 ) ;
#175 = PERSON_AND_ORGANIZATION_ROLE ( 'classification_officer' ) ;
#176 = CARTESIAN_POINT ( 'NONE',  ( 12.49999999999999800, 12.49999999999999600, 1.000000000000000000 ) ) ;
#177 = DIRECTION ( 'NONE',  ( 1.000000000000000000, 0.0000000000000000000, 0.0000000000000000000 ) ) ;
#178 = PERSON_AND_ORGANIZATION ( #114, #187 ) ;
#179 = PRODUCT_RELATED_PRODUCT_CATEGORY ( 'detail', '', ( #90 ) ) ;
#180 = DIRECTION ( 'NONE',  ( 0.0000000000000000000, 0.0000000000000000000, 1.000000000000000000 ) ) ;
#181 = PLANE ( 'NONE',  #37 ) ;
#182 = COORDINATED_UNIVERSAL_TIME_OFFSET ( 5, 0, .BEHIND. ) ;
#183 = ORIENTED_EDGE ( 'NONE', *, *, #57, .T. ) ;
#184 = ORIENTED_EDGE ( 'NONE', *, *, #55, .F. ) ;
#185 = CARTESIAN_POINT ( 'NONE',  ( 12.49999999999999800, 12.49999999999999600, 1.000000000000000000 ) ) ;
#186 = FACE_OUTER_BOUND ( 'NONE', #15, .T. ) ;
#187 = ORGANIZATION ( 'UNSPECIFIED', 'UNSPECIFIED', '' ) ;
#188 = ORIENTED_EDGE ( 'NONE', *, *, #57, .F. ) ;
#189 = ADVANCED_FACE ( 'NONE', ( #186 ), #79, .F. ) ;
#190 = LINE ( 'NONE', #116, #227 ) ;
#191 = DIRECTION ( 'NONE',  ( 1.000000000000000000, 0.0000000000000000000, 0.0000000000000000000 ) ) ;
#192 = PERSON_AND_ORGANIZATION ( #114, #187 ) ;
#193 = ADVANCED_FACE ( 'NONE', ( #99 ), #215, .F. ) ;
#194 = DIRECTION ( 'NONE',  ( -1.387778780781445700E-016, 1.000000000000000000, -0.0000000000000000000 ) ) ;
#195 = APPROVAL_PERSON_ORGANIZATION ( #40, #6, #161 ) ;
#196 = CARTESIAN_POINT ( 'NONE',  ( 12.49999999999999800, 12.49999999999999600, -1.000000000000000000 ) ) ;
#197 = VECTOR ( 'NONE', #205, 1000.000000000000000 ) ;
#198 = MANIFOLD_SOLID_BREP ( 'Boss-Extrude1', #5 ) ;
#199 = PRODUCT_DEFINITION_FORMATION_WITH_SPECIFIED_SOURCE ( 'ANY', '', #90, .NOT_KNOWN. ) ;
#200 = VECTOR ( 'NONE', #140, 1000.000000000000000 ) ;
#201 = ORIENTED_EDGE ( 'NONE', *, *, #27, .T. ) ;
#202 =( NAMED_UNIT ( * ) PLANE_ANGLE_UNIT ( ) SI_UNIT ( $, .RADIAN. ) );
#203 = EDGE_LOOP ( 'NONE', ( #104, #22, #7, #9 ) ) ;
#204 = PLANE ( 'NONE',  #174 ) ;
#205 = DIRECTION ( 'NONE',  ( 1.387778780781445700E-016, -1.000000000000000000, 0.0000000000000000000 ) ) ;
#206 = CARTESIAN_POINT ( 'NONE',  ( -12.50000000000000200, 12.49999999999999600, 1.000000000000000000 ) ) ;
#207 = CARTESIAN_POINT ( 'NONE',  ( 12.49999999999999800, 12.49999999999999600, -1.000000000000000000 ) ) ;
#208 = LINE ( 'NONE', #70, #146 ) ;
#209 = DATE_AND_TIME ( #61, #163 ) ;
#210 = CARTESIAN_POINT ( 'NONE',  ( -12.49999999999999800, -12.50000000000000200, 1.000000000000000000 ) ) ;
#211 = APPROVAL_DATE_TIME ( #67, #6 ) ;
#212 = CARTESIAN_POINT ( 'NONE',  ( 12.50000000000000200, -12.50000000000000200, 1.000000000000000000 ) ) ;
#213 = DATE_AND_TIME ( #69, #168 ) ;
#214 = PLANE ( 'NONE',  #134 ) ;
#215 = PLANE ( 'NONE',  #142 ) ;
#216 = APPLICATION_CONTEXT ( 'configuration controlled 3d designs of mechanical parts and assemblies' ) ;
#217 = ORIENTED_EDGE ( 'NONE', *, *, #109, .T. ) ;
#218 = FACE_OUTER_BOUND ( 'NONE', #93, .T. ) ;
#219 = SHAPE_DEFINITION_REPRESENTATION ( #108, #4 ) ;
#220 = LOCAL_TIME ( 16, 7, 49.00000000000000000, #83 ) ;
#221 = CARTESIAN_POINT ( 'NONE',  ( -12.50000000000000200, 12.49999999999999600, 1.000000000000000000 ) ) ;
#222 =( LENGTH_UNIT ( ) NAMED_UNIT ( * ) SI_UNIT ( .MILLI., .METRE. ) );
#223 = CALENDAR_DATE ( 2017, 1, 5 ) ;
#224 = DIRECTION ( 'NONE',  ( 1.387778780781445700E-016, -1.000000000000000000, 0.0000000000000000000 ) ) ;
#225 = VECTOR ( 'NONE', #43, 1000.000000000000000 ) ;
#226 = EDGE_CURVE ( 'NONE', #229, #82, #86, .T. ) ;
#227 = VECTOR ( 'NONE', #63, 1000.000000000000000 ) ;
#228 = PERSON_AND_ORGANIZATION ( #114, #187 ) ;
#229 = VERTEX_POINT ( 'NONE', #176 ) ;
#230 = APPROVAL_STATUS ( 'not_yet_approved' ) ;
#231 = CARTESIAN_POINT ( 'NONE',  ( 12.49999999999999800, 12.49999999999999600, 1.000000000000000000 ) ) ;
#232 = CC_DESIGN_DATE_AND_TIME_ASSIGNMENT ( #147, #76, ( #103 ) ) ;
#233 = DATE_TIME_ROLE ( 'classification_date' ) ;
#234 = FACE_OUTER_BOUND ( 'NONE', #89, .T. ) ;
#235 = DIRECTION ( 'NONE',  ( 1.000000000000000000, 0.0000000000000000000, 0.0000000000000000000 ) ) ;
#236 = COORDINATED_UNIVERSAL_TIME_OFFSET ( 5, 0, .BEHIND. ) ;
#237 = LOCAL_TIME ( 16, 7, 49.00000000000000000, #106 ) ;
ENDSEC;
END-ISO-10303-21;
