ISO-10303-21;
HEADER;
FILE_DESCRIPTION (( 'STEP AP203' ),
    '1' );
FILE_NAME ('Web Model 49578_49578.step',
    '2019-04-23T14:09:37',
    ( '' ),
    ( '' ),
    'SwSTEP 2.0',
    'SolidWorks 2018',
    '' );
FILE_SCHEMA (( 'CONFIG_CONTROL_DESIGN' ));
ENDSEC;

DATA;
#1 = PLANE ( 'NONE',  #4 ) ;
#2 = DATE_TIME_ROLE ( 'classification_date' ) ;
#3 = VERTEX_POINT ( 'NONE', #85 ) ;
#4 = AXIS2_PLACEMENT_3D ( 'NONE', #178, #200, #33 ) ;
#5 = VECTOR ( 'NONE', #94, 1000.000000000000000 ) ;
#6 = FACE_OUTER_BOUND ( 'NONE', #75, .T. ) ;
#7 = PERSON ( 'UNSPECIFIED', 'UNSPECIFIED', 'UNSPECIFIED', ('UNSPECIFIED'), ('UNSPECIFIED'), ('UNSPECIFIED') ) ;
#8 = AXIS2_PLACEMENT_3D ( 'NONE', #236, #175, #11 ) ;
#9 = LOCAL_TIME ( 10, 9, 37.00000000000000000, #162 ) ;
#10 = CARTESIAN_POINT ( 'NONE',  ( -6.349999999999999645, 6.349999999999999645, 3.000000000000000000 ) ) ;
#11 = DIRECTION ( 'NONE',  ( 0.0000000000000000000, -1.000000000000000000, 0.0000000000000000000 ) ) ;
#12 = LINE ( 'NONE', #124, #152 ) ;
#13 = ORIENTED_EDGE ( 'NONE', *, *, #182, .T. ) ;
#14 = CARTESIAN_POINT ( 'NONE',  ( 6.349999999999999645, -6.349999999999999645, 3.000000000000000000 ) ) ;
#15 = DIRECTION ( 'NONE',  ( 0.0000000000000000000, -1.000000000000000000, 0.0000000000000000000 ) ) ;
#16 = ORIENTED_EDGE ( 'NONE', *, *, #81, .T. ) ;
#17 = SECURITY_CLASSIFICATION_LEVEL ( 'unclassified' ) ;
#18 = ORIENTED_EDGE ( 'NONE', *, *, #93, .F. ) ;
#19 = CALENDAR_DATE ( 2019, 23, 4 ) ;
#20 = LOCAL_TIME ( 10, 9, 37.00000000000000000, #24 ) ;
#21 = PERSON_AND_ORGANIZATION ( #7, #122 ) ;
#22 = ORIENTED_EDGE ( 'NONE', *, *, #209, .T. ) ;
#23 = ADVANCED_FACE ( 'NONE', ( #222 ), #121, .F. ) ;
#24 = COORDINATED_UNIVERSAL_TIME_OFFSET ( 5, 0, .BEHIND. ) ;
#25 = DIRECTION ( 'NONE',  ( 1.000000000000000000, 0.0000000000000000000, 0.0000000000000000000 ) ) ;
#26 = APPROVAL_PERSON_ORGANIZATION ( #168, #184, #36 ) ;
#27 = CARTESIAN_POINT ( 'NONE',  ( -6.349999999999999645, 6.349999999999999645, 0.0000000000000000000 ) ) ;
#28 = DIRECTION ( 'NONE',  ( 0.0000000000000000000, 0.0000000000000000000, -1.000000000000000000 ) ) ;
#29 = AXIS2_PLACEMENT_3D ( 'NONE', #110, #211, #115 ) ;
#30 = CARTESIAN_POINT ( 'NONE',  ( -6.349999999999999645, 6.349999999999999645, 3.000000000000000000 ) ) ;
#31 = APPROVAL_PERSON_ORGANIZATION ( #100, #218, #132 ) ;
#32 =( NAMED_UNIT ( * ) PLANE_ANGLE_UNIT ( ) SI_UNIT ( $, .RADIAN. ) );
#33 = DIRECTION ( 'NONE',  ( 0.0000000000000000000, 0.0000000000000000000, 1.000000000000000000 ) ) ;
#34 = CALENDAR_DATE ( 2019, 23, 4 ) ;
#35 = VECTOR ( 'NONE', #25, 1000.000000000000000 ) ;
#36 = APPROVAL_ROLE ( '' ) ;
#37 = EDGE_CURVE ( 'NONE', #199, #141, #12, .T. ) ;
#38 = LINE ( 'NONE', #234, #181 ) ;
#39 = ORIENTED_EDGE ( 'NONE', *, *, #189, .T. ) ;
#40 = CALENDAR_DATE ( 2019, 23, 4 ) ;
#41 = LINE ( 'NONE', #156, #231 ) ;
#42 = CC_DESIGN_PERSON_AND_ORGANIZATION_ASSIGNMENT ( #208, #215, ( #69 ) ) ;
#43 = PRODUCT_DEFINITION_SHAPE ( 'NONE', 'NONE',  #207 ) ;
#44 = COORDINATED_UNIVERSAL_TIME_OFFSET ( 5, 0, .BEHIND. ) ;
#45 = AXIS2_PLACEMENT_3D ( 'NONE', #118, #54, #146 ) ;
#46 = ADVANCED_FACE ( 'NONE', ( #177 ), #224, .T. ) ;
#47 = ORIENTED_EDGE ( 'NONE', *, *, #37, .F. ) ;
#48 = ADVANCED_FACE ( 'NONE', ( #6 ), #172, .F. ) ;
#49 = DIRECTION ( 'NONE',  ( 0.0000000000000000000, 1.000000000000000000, 0.0000000000000000000 ) ) ;
#50 = EDGE_CURVE ( 'NONE', #199, #66, #204, .T. ) ;
#51 = DIRECTION ( 'NONE',  ( 1.000000000000000000, 0.0000000000000000000, 0.0000000000000000000 ) ) ;
#52 = ORIENTED_EDGE ( 'NONE', *, *, #189, .F. ) ;
#53 = CARTESIAN_POINT ( 'NONE',  ( -6.349999999999999645, -6.349999999999999645, 0.0000000000000000000 ) ) ;
#54 = DIRECTION ( 'NONE',  ( 0.0000000000000000000, 0.0000000000000000000, 1.000000000000000000 ) ) ;
#55 = DATE_TIME_ROLE ( 'creation_date' ) ;
#56 = AXIS2_PLACEMENT_3D ( 'NONE', #65, #129, #49 ) ;
#57 = CARTESIAN_POINT ( 'NONE',  ( 6.349999999999999645, -6.349999999999999645, 3.000000000000000000 ) ) ;
#58 = APPROVAL_ROLE ( '' ) ;
#59 = ADVANCED_BREP_SHAPE_REPRESENTATION ( 'Web Model 49578_49578', ( #99, #45 ), #205 ) ;
#60 = CC_DESIGN_DATE_AND_TIME_ASSIGNMENT ( #88, #55, ( #207 ) ) ;
#61 = FACE_OUTER_BOUND ( 'NONE', #150, .T. ) ;
#62 = EDGE_CURVE ( 'NONE', #127, #188, #89, .T. ) ;
#63 = APPROVAL_DATE_TIME ( #160, #218 ) ;
#64 = DESIGN_CONTEXT ( 'detailed design', #176, 'design' ) ;
#65 = CARTESIAN_POINT ( 'NONE',  ( -6.349999999999999645, -6.349999999999999645, 3.000000000000000000 ) ) ;
#66 = VERTEX_POINT ( 'NONE', #30 ) ;
#67 = ORIENTED_EDGE ( 'NONE', *, *, #93, .T. ) ;
#68 = DIRECTION ( 'NONE',  ( -1.000000000000000000, 0.0000000000000000000, 0.0000000000000000000 ) ) ;
#69 = PRODUCT_DEFINITION_FORMATION_WITH_SPECIFIED_SOURCE ( 'ANY', '', #230, .NOT_KNOWN. ) ;
#70 = DIRECTION ( 'NONE',  ( 0.0000000000000000000, 0.0000000000000000000, -1.000000000000000000 ) ) ;
#71 = CARTESIAN_POINT ( 'NONE',  ( -6.349999999999999645, -6.349999999999999645, 0.0000000000000000000 ) ) ;
#72 = COORDINATED_UNIVERSAL_TIME_OFFSET ( 5, 0, .BEHIND. ) ;
#73 = CC_DESIGN_APPROVAL ( #184, ( #86 ) ) ;
#74 = VECTOR ( 'NONE', #28, 1000.000000000000000 ) ;
#75 = EDGE_LOOP ( 'NONE', ( #13, #227, #82, #105 ) ) ;
#76 = UNCERTAINTY_MEASURE_WITH_UNIT (LENGTH_MEASURE( 1.000000000000000082E-05 ), #119, 'distance_accuracy_value', 'NONE');
#77 = APPROVAL_STATUS ( 'not_yet_approved' ) ;
#78 = APPLICATION_PROTOCOL_DEFINITION ( 'international standard', 'config_control_design', 1994, #176 ) ;
#79 = LINE ( 'NONE', #193, #220 ) ;
#80 = ORIENTED_EDGE ( 'NONE', *, *, #174, .F. ) ;
#81 = EDGE_CURVE ( 'NONE', #3, #141, #79, .T. ) ;
#82 = ORIENTED_EDGE ( 'NONE', *, *, #50, .F. ) ;
#83 = VERTEX_POINT ( 'NONE', #27 ) ;
#84 = EDGE_LOOP ( 'NONE', ( #217, #139, #102, #190 ) ) ;
#85 = CARTESIAN_POINT ( 'NONE',  ( 6.349999999999999645, -6.349999999999999645, 0.0000000000000000000 ) ) ;
#86 = SECURITY_CLASSIFICATION ( '', '', #17 ) ;
#87 = CC_DESIGN_SECURITY_CLASSIFICATION ( #86, ( #69 ) ) ;
#88 = DATE_AND_TIME ( #19, #148 ) ;
#89 = LINE ( 'NONE', #92, #117 ) ;
#90 = CARTESIAN_POINT ( 'NONE',  ( -6.349999999999999645, -6.349999999999999645, 3.000000000000000000 ) ) ;
#91 = DATE_AND_TIME ( #34, #180 ) ;
#92 = CARTESIAN_POINT ( 'NONE',  ( -6.349999999999999645, -6.349999999999999645, 3.000000000000000000 ) ) ;
#93 = EDGE_CURVE ( 'NONE', #188, #199, #226, .T. ) ;
#94 = DIRECTION ( 'NONE',  ( 0.0000000000000000000, -1.000000000000000000, 0.0000000000000000000 ) ) ;
#95 = PERSON_AND_ORGANIZATION_ROLE ( 'design_supplier' ) ;
#96 = LOCAL_TIME ( 10, 9, 37.00000000000000000, #183 ) ;
#97 = APPROVAL_STATUS ( 'not_yet_approved' ) ;
#98 = ORIENTED_EDGE ( 'NONE', *, *, #62, .F. ) ;
#99 = MANIFOLD_SOLID_BREP ( 'NONE', #155 ) ;
#100 = PERSON_AND_ORGANIZATION ( #7, #122 ) ;
#101 = EDGE_CURVE ( 'NONE', #66, #83, #140, .T. ) ;
#102 = ORIENTED_EDGE ( 'NONE', *, *, #107, .F. ) ;
#103 = CC_DESIGN_APPROVAL ( #137, ( #69 ) ) ;
#104 = LINE ( 'NONE', #71, #5 ) ;
#105 = ORIENTED_EDGE ( 'NONE', *, *, #37, .T. ) ;
#106 = PERSON_AND_ORGANIZATION ( #7, #122 ) ;
#107 = EDGE_CURVE ( 'NONE', #66, #127, #197, .T. ) ;
#108 = VECTOR ( 'NONE', #15, 1000.000000000000000 ) ;
#109 = DIRECTION ( 'NONE',  ( 0.0000000000000000000, 1.000000000000000000, 0.0000000000000000000 ) ) ;
#110 = CARTESIAN_POINT ( 'NONE',  ( 0.0000000000000000000, 0.0000000000000000000, 0.0000000000000000000 ) ) ;
#111 = DATE_AND_TIME ( #201, #9 ) ;
#112 = PERSON_AND_ORGANIZATION ( #7, #122 ) ;
#113 = CARTESIAN_POINT ( 'NONE',  ( -6.349999999999999645, 6.349999999999999645, 3.000000000000000000 ) ) ;
#114 = CC_DESIGN_PERSON_AND_ORGANIZATION_ASSIGNMENT ( #136, #214, ( #86 ) ) ;
#115 = DIRECTION ( 'NONE',  ( 0.0000000000000000000, -1.000000000000000000, 0.0000000000000000000 ) ) ;
#116 = CC_DESIGN_DATE_AND_TIME_ASSIGNMENT ( #223, #2, ( #86 ) ) ;
#117 = VECTOR ( 'NONE', #51, 1000.000000000000000 ) ;
#118 = CARTESIAN_POINT ( 'NONE',  ( 0.0000000000000000000, 0.0000000000000000000, 0.0000000000000000000 ) ) ;
#119 =( LENGTH_UNIT ( ) NAMED_UNIT ( * ) SI_UNIT ( .MILLI., .METRE. ) );
#120 = DIRECTION ( 'NONE',  ( 0.0000000000000000000, 0.0000000000000000000, -1.000000000000000000 ) ) ;
#121 = PLANE ( 'NONE',  #169 ) ;
#122 = ORGANIZATION ( 'UNSPECIFIED', 'UNSPECIFIED', '' ) ;
#123 = CARTESIAN_POINT ( 'NONE',  ( -6.349999999999999645, -6.349999999999999645, 3.000000000000000000 ) ) ;
#124 = CARTESIAN_POINT ( 'NONE',  ( 6.349999999999999645, 6.349999999999999645, 3.000000000000000000 ) ) ;
#125 = PRODUCT_RELATED_PRODUCT_CATEGORY ( 'detail', '', ( #230 ) ) ;
#126 = VECTOR ( 'NONE', #68, 1000.000000000000000 ) ;
#127 = VERTEX_POINT ( 'NONE', #90 ) ;
#128 = PLANE ( 'NONE',  #8 ) ;
#129 = DIRECTION ( 'NONE',  ( 1.000000000000000000, 0.0000000000000000000, 0.0000000000000000000 ) ) ;
#130 = ORIENTED_EDGE ( 'NONE', *, *, #209, .F. ) ;
#131 = MECHANICAL_CONTEXT ( 'NONE', #198, 'mechanical' ) ;
#132 = APPROVAL_ROLE ( '' ) ;
#133 = CC_DESIGN_PERSON_AND_ORGANIZATION_ASSIGNMENT ( #112, #159, ( #207 ) ) ;
#134 = DIRECTION ( 'NONE',  ( 0.0000000000000000000, 0.0000000000000000000, -1.000000000000000000 ) ) ;
#135 = ORIENTED_EDGE ( 'NONE', *, *, #62, .T. ) ;
#136 = PERSON_AND_ORGANIZATION ( #7, #122 ) ;
#137 = APPROVAL ( #97, 'UNSPECIFIED' ) ;
#138 = LINE ( 'NONE', #212, #35 ) ;
#139 = ORIENTED_EDGE ( 'NONE', *, *, #206, .F. ) ;
#140 = LINE ( 'NONE', #10, #74 ) ;
#141 = VERTEX_POINT ( 'NONE', #210 ) ;
#142 = CC_DESIGN_PERSON_AND_ORGANIZATION_ASSIGNMENT ( #21, #95, ( #69 ) ) ;
#143 = DIRECTION ( 'NONE',  ( -1.000000000000000000, 0.0000000000000000000, 0.0000000000000000000 ) ) ;
#144 = DIRECTION ( 'NONE',  ( 0.0000000000000000000, -1.000000000000000000, 0.0000000000000000000 ) ) ;
#145 = EDGE_LOOP ( 'NONE', ( #16, #47, #18, #22 ) ) ;
#146 = DIRECTION ( 'NONE',  ( 1.000000000000000000, 0.0000000000000000000, 0.0000000000000000000 ) ) ;
#147 = APPLICATION_PROTOCOL_DEFINITION ( 'international standard', 'config_control_design', 1994, #198 ) ;
#148 = LOCAL_TIME ( 10, 9, 37.00000000000000000, #72 ) ;
#149 = VECTOR ( 'NONE', #120, 1000.000000000000000 ) ;
#150 = EDGE_LOOP ( 'NONE', ( #67, #221, #216, #135 ) ) ;
#151 = FACE_OUTER_BOUND ( 'NONE', #84, .T. ) ;
#152 = VECTOR ( 'NONE', #70, 1000.000000000000000 ) ;
#153 = DIRECTION ( 'NONE',  ( -0.0000000000000000000, 1.000000000000000000, 0.0000000000000000000 ) ) ;
#154 = PLANE ( 'NONE',  #56 ) ;
#155 = CLOSED_SHELL ( 'NONE', ( #229, #48, #167, #23, #164, #46 ) ) ;
#156 = CARTESIAN_POINT ( 'NONE',  ( -6.349999999999999645, 6.349999999999999645, 0.0000000000000000000 ) ) ;
#157 = CARTESIAN_POINT ( 'NONE',  ( -6.349999999999999645, -6.349999999999999645, 3.000000000000000000 ) ) ;
#158 =( NAMED_UNIT ( * ) SI_UNIT ( $, .STERADIAN. ) SOLID_ANGLE_UNIT ( ) );
#159 = PERSON_AND_ORGANIZATION_ROLE ( 'creator' ) ;
#160 = DATE_AND_TIME ( #219, #20 ) ;
#161 = VERTEX_POINT ( 'NONE', #53 ) ;
#162 = COORDINATED_UNIVERSAL_TIME_OFFSET ( 5, 0, .BEHIND. ) ;
#163 = AXIS2_PLACEMENT_3D ( 'NONE', #192, #144, #191 ) ;
#164 = ADVANCED_FACE ( 'NONE', ( #61 ), #128, .F. ) ;
#165 = VECTOR ( 'NONE', #109, 1000.000000000000000 ) ;
#166 = ORIENTED_EDGE ( 'NONE', *, *, #182, .F. ) ;
#167 = ADVANCED_FACE ( 'NONE', ( #151 ), #154, .F. ) ;
#168 = PERSON_AND_ORGANIZATION ( #7, #122 ) ;
#169 = AXIS2_PLACEMENT_3D ( 'NONE', #123, #153, #186 ) ;
#170 = CARTESIAN_POINT ( 'NONE',  ( 6.349999999999999645, 6.349999999999999645, 3.000000000000000000 ) ) ;
#171 = DIRECTION ( 'NONE',  ( 0.0000000000000000000, 1.000000000000000000, 0.0000000000000000000 ) ) ;
#172 = PLANE ( 'NONE',  #163 ) ;
#173 = APPROVAL_DATE_TIME ( #91, #137 ) ;
#174 = EDGE_CURVE ( 'NONE', #83, #161, #104, .T. ) ;
#175 = DIRECTION ( 'NONE',  ( 0.0000000000000000000, 0.0000000000000000000, -1.000000000000000000 ) ) ;
#176 = APPLICATION_CONTEXT ( 'configuration controlled 3d designs of mechanical parts and assemblies' ) ;
#177 = FACE_OUTER_BOUND ( 'NONE', #228, .T. ) ;
#178 = CARTESIAN_POINT ( 'NONE',  ( 6.349999999999999645, -6.349999999999999645, 3.000000000000000000 ) ) ;
#179 = CC_DESIGN_PERSON_AND_ORGANIZATION_ASSIGNMENT ( #196, #195, ( #230 ) ) ;
#180 = LOCAL_TIME ( 10, 9, 37.00000000000000000, #44 ) ;
#181 = VECTOR ( 'NONE', #134, 1000.000000000000000 ) ;
#182 = EDGE_CURVE ( 'NONE', #141, #83, #41, .T. ) ;
#183 = COORDINATED_UNIVERSAL_TIME_OFFSET ( 5, 0, .BEHIND. ) ;
#184 = APPROVAL ( #77, 'UNSPECIFIED' ) ;
#185 = APPROVAL_DATE_TIME ( #111, #184 ) ;
#186 = DIRECTION ( 'NONE',  ( 1.000000000000000000, 0.0000000000000000000, 0.0000000000000000000 ) ) ;
#187 = APPROVAL_PERSON_ORGANIZATION ( #106, #137, #58 ) ;
#188 = VERTEX_POINT ( 'NONE', #14 ) ;
#189 = EDGE_CURVE ( 'NONE', #161, #3, #138, .T. ) ;
#190 = ORIENTED_EDGE ( 'NONE', *, *, #101, .T. ) ;
#191 = DIRECTION ( 'NONE',  ( 0.0000000000000000000, 0.0000000000000000000, -1.000000000000000000 ) ) ;
#192 = CARTESIAN_POINT ( 'NONE',  ( -6.349999999999999645, 6.349999999999999645, 3.000000000000000000 ) ) ;
#193 = CARTESIAN_POINT ( 'NONE',  ( 6.349999999999999645, -6.349999999999999645, 0.0000000000000000000 ) ) ;
#194 = ORIENTED_EDGE ( 'NONE', *, *, #206, .T. ) ;
#195 = PERSON_AND_ORGANIZATION_ROLE ( 'design_owner' ) ;
#196 = PERSON_AND_ORGANIZATION ( #7, #122 ) ;
#197 = LINE ( 'NONE', #157, #108 ) ;
#198 = APPLICATION_CONTEXT ( 'configuration controlled 3d designs of mechanical parts and assemblies' ) ;
#199 = VERTEX_POINT ( 'NONE', #170 ) ;
#200 = DIRECTION ( 'NONE',  ( -1.000000000000000000, 0.0000000000000000000, 0.0000000000000000000 ) ) ;
#201 = CALENDAR_DATE ( 2019, 23, 4 ) ;
#202 = APPROVAL_STATUS ( 'not_yet_approved' ) ;
#203 = FACE_OUTER_BOUND ( 'NONE', #145, .T. ) ;
#204 = LINE ( 'NONE', #113, #126 ) ;
#205 =( GEOMETRIC_REPRESENTATION_CONTEXT ( 3 ) GLOBAL_UNCERTAINTY_ASSIGNED_CONTEXT ( ( #76 ) ) GLOBAL_UNIT_ASSIGNED_CONTEXT ( ( #119, #32, #158 ) ) REPRESENTATION_CONTEXT ( 'NONE', 'WORKASPACE' ) );
#206 = EDGE_CURVE ( 'NONE', #127, #161, #38, .T. ) ;
#207 = PRODUCT_DEFINITION ( 'UNKNOWN', '', #69, #64 ) ;
#208 = PERSON_AND_ORGANIZATION ( #7, #122 ) ;
#209 = EDGE_CURVE ( 'NONE', #188, #3, #225, .T. ) ;
#210 = CARTESIAN_POINT ( 'NONE',  ( 6.349999999999999645, 6.349999999999999645, 0.0000000000000000000 ) ) ;
#211 = DIRECTION ( 'NONE',  ( 0.0000000000000000000, 0.0000000000000000000, -1.000000000000000000 ) ) ;
#212 = CARTESIAN_POINT ( 'NONE',  ( -6.349999999999999645, -6.349999999999999645, 0.0000000000000000000 ) ) ;
#213 = SHAPE_DEFINITION_REPRESENTATION ( #43, #59 ) ;
#214 = PERSON_AND_ORGANIZATION_ROLE ( 'classification_officer' ) ;
#215 = PERSON_AND_ORGANIZATION_ROLE ( 'creator' ) ;
#216 = ORIENTED_EDGE ( 'NONE', *, *, #107, .T. ) ;
#217 = ORIENTED_EDGE ( 'NONE', *, *, #174, .T. ) ;
#218 = APPROVAL ( #202, 'UNSPECIFIED' ) ;
#219 = CALENDAR_DATE ( 2019, 23, 4 ) ;
#220 = VECTOR ( 'NONE', #171, 1000.000000000000000 ) ;
#221 = ORIENTED_EDGE ( 'NONE', *, *, #50, .T. ) ;
#222 = FACE_OUTER_BOUND ( 'NONE', #233, .T. ) ;
#223 = DATE_AND_TIME ( #40, #96 ) ;
#224 = PLANE ( 'NONE',  #29 ) ;
#225 = LINE ( 'NONE', #57, #149 ) ;
#226 = LINE ( 'NONE', #237, #165 ) ;
#227 = ORIENTED_EDGE ( 'NONE', *, *, #101, .F. ) ;
#228 = EDGE_LOOP ( 'NONE', ( #232, #52, #80, #166 ) ) ;
#229 = ADVANCED_FACE ( 'NONE', ( #203 ), #1, .F. ) ;
#230 = PRODUCT ( 'Web Model 49578_49578', 'Web Model 49578_49578', '', ( #131 ) ) ;
#231 = VECTOR ( 'NONE', #143, 1000.000000000000000 ) ;
#232 = ORIENTED_EDGE ( 'NONE', *, *, #81, .F. ) ;
#233 = EDGE_LOOP ( 'NONE', ( #39, #130, #98, #194 ) ) ;
#234 = CARTESIAN_POINT ( 'NONE',  ( -6.349999999999999645, -6.349999999999999645, 3.000000000000000000 ) ) ;
#235 = CC_DESIGN_APPROVAL ( #218, ( #207 ) ) ;
#236 = CARTESIAN_POINT ( 'NONE',  ( 0.0000000000000000000, 0.0000000000000000000, 3.000000000000000000 ) ) ;
#237 = CARTESIAN_POINT ( 'NONE',  ( 6.349999999999999645, -6.349999999999999645, 3.000000000000000000 ) ) ;
ENDSEC;
END-ISO-10303-21;
