ISO-10303-21;
HEADER;
FILE_DESCRIPTION (( 'STEP AP203' ),
    '1' );
FILE_NAME ('TTN162613-E0W.STEP',
    '2019-10-24T14:00:31',
    ( '' ),
    ( '' ),
    'SwSTEP 2.0',
    'SolidWorks 2018',
    '' );
FILE_SCHEMA (( 'CONFIG_CONTROL_DESIGN' ));
ENDSEC;

DATA;
#1 = APPLICATION_PROTOCOL_DEFINITION ( 'international standard', 'config_control_design', 1994, #178 ) ;
#2 = CARTESIAN_POINT ( 'NONE',  ( 0.6300432552928489915, 1.168853413705051913, 1.011627240079497003 ) ) ;
#3 = ORIENTED_EDGE ( 'NONE', *, *, #187, .F. ) ;
#4 = DIRECTION ( 'NONE',  ( 0.0000000000000000000, -1.224646799147353454E-16, 1.000000000000000000 ) ) ;
#5 =( GEOMETRIC_REPRESENTATION_CONTEXT ( 3 ) GLOBAL_UNCERTAINTY_ASSIGNED_CONTEXT ( ( #192 ) ) GLOBAL_UNIT_ASSIGNED_CONTEXT ( ( #67, #44, #21 ) ) REPRESENTATION_CONTEXT ( 'NONE', 'WORKASPACE' ) );
#6 = CARTESIAN_POINT ( 'NONE',  ( 0.6300432552928489915, 1.168853413705051913, 1.011627240079497003 ) ) ;
#7 = EDGE_LOOP ( 'NONE', ( #299, #226, #22, #140 ) ) ;
#8 = APPROVAL_PERSON_ORGANIZATION ( #154, #294, #242 ) ;
#9 = DIRECTION ( 'NONE',  ( 8.659560562354934091E-17, -0.7071067811865474617, -0.7071067811865476838 ) ) ;
#10 = DIRECTION ( 'NONE',  ( -1.000000000000000000, 0.0000000000000000000, 0.0000000000000000000 ) ) ;
#11 = ADVANCED_FACE ( 'NONE', ( #85 ), #131, .T. ) ;
#12 = DIRECTION ( 'NONE',  ( -0.0000000000000000000, 1.224646799147353454E-16, -1.000000000000000000 ) ) ;
#13 = CC_DESIGN_PERSON_AND_ORGANIZATION_ASSIGNMENT ( #241, #136, ( #27 ) ) ;
#14 = DIRECTION ( 'NONE',  ( 0.0000000000000000000, 1.000000000000000000, 2.168404344971008375E-16 ) ) ;
#15 = ORIENTED_EDGE ( 'NONE', *, *, #63, .F. ) ;
#16 = VERTEX_POINT ( 'NONE', #211 ) ;
#17 = EDGE_LOOP ( 'NONE', ( #47, #193, #176, #3 ) ) ;
#18 = DATE_AND_TIME ( #87, #234 ) ;
#19 = AXIS2_PLACEMENT_3D ( 'NONE', #174, #298, #138 ) ;
#20 = MECHANICAL_CONTEXT ( 'NONE', #90, 'mechanical' ) ;
#21 =( NAMED_UNIT ( * ) SI_UNIT ( $, .STERADIAN. ) SOLID_ANGLE_UNIT ( ) );
#22 = ORIENTED_EDGE ( 'NONE', *, *, #274, .F. ) ;
#23 = ADVANCED_FACE ( 'NONE', ( #104 ), #117, .T. ) ;
#24 = DIRECTION ( 'NONE',  ( 1.000000000000000000, 0.0000000000000000000, -0.0000000000000000000 ) ) ;
#25 = APPROVAL ( #156, 'UNSPECIFIED' ) ;
#26 = LOCAL_TIME ( 10, 0, 31.00000000000000000, #109 ) ;
#27 = PRODUCT ( 'TTN162613-E0W', 'TTN162613-E0W', '', ( #20 ) ) ;
#28 = DIRECTION ( 'NONE',  ( 0.0000000000000000000, 1.000000000000000000, 2.168404344971008375E-16 ) ) ;
#29 = CARTESIAN_POINT ( 'NONE',  ( 0.6300432552928491026, 2.118853413705051203, 1.011627240079497225 ) ) ;
#30 = DIRECTION ( 'NONE',  ( 0.0000000000000000000, 1.000000000000000000, 2.282530889443168008E-16 ) ) ;
#31 = DIRECTION ( 'NONE',  ( 0.0000000000000000000, 1.000000000000000000, 2.168404344971008375E-16 ) ) ;
#32 = CARTESIAN_POINT ( 'NONE',  ( 0.6300432552928489915, 1.168853413705051913, 1.812525104166261114 ) ) ;
#33 = SPHERICAL_SURFACE ( 'NONE', #132, 3.100999999999999979 ) ;
#34 = EDGE_CURVE ( 'NONE', #179, #249, #266, .T. ) ;
#35 = CARTESIAN_POINT ( 'NONE',  ( 0.6300432552928489915, 1.168853413705051913, -1.089372759920502975 ) ) ;
#36 = LOCAL_TIME ( 10, 0, 31.00000000000000000, #290 ) ;
#37 = DIRECTION ( 'NONE',  ( -0.0000000000000000000, 1.224646799147353454E-16, -1.000000000000000000 ) ) ;
#38 = MANIFOLD_SOLID_BREP ( 'TTN162285-1-solid1', #173 ) ;
#39 = EDGE_CURVE ( 'NONE', #267, #282, #231, .T. ) ;
#40 = CIRCLE ( 'NONE', #278, 1.000000000000000222 ) ;
#41 = LOCAL_TIME ( 10, 0, 31.00000000000000000, #271 ) ;
#42 = CC_DESIGN_APPROVAL ( #25, ( #130 ) ) ;
#43 = PERSON_AND_ORGANIZATION ( #81, #177 ) ;
#44 =( NAMED_UNIT ( * ) PLANE_ANGLE_UNIT ( ) SI_UNIT ( $, .RADIAN. ) );
#45 = EDGE_CURVE ( 'NONE', #179, #139, #134, .T. ) ;
#46 = PERSON_AND_ORGANIZATION_ROLE ( 'creator' ) ;
#47 = ORIENTED_EDGE ( 'NONE', *, *, #34, .F. ) ;
#48 = APPROVAL_DATE_TIME ( #18, #294 ) ;
#49 = PERSON_AND_ORGANIZATION_ROLE ( 'design_supplier' ) ;
#50 = ADVANCED_FACE ( 'NONE', ( #293 ), #58, .T. ) ;
#51 = VECTOR ( 'NONE', #77, 1000.000000000000000 ) ;
#52 = APPROVAL_DATE_TIME ( #65, #25 ) ;
#53 = DIRECTION ( 'NONE',  ( 0.0000000000000000000, 0.7071067811865476838, -0.7071067811865474617 ) ) ;
#54 = DIRECTION ( 'NONE',  ( -0.0000000000000000000, 1.224646799147353454E-16, -1.000000000000000000 ) ) ;
#55 = AXIS2_PLACEMENT_3D ( 'NONE', #125, #101, #283 ) ;
#56 = DIRECTION ( 'NONE',  ( 0.0000000000000000000, 1.000000000000000000, 1.398519409849086818E-16 ) ) ;
#57 = AXIS2_PLACEMENT_3D ( 'NONE', #186, #126, #214 ) ;
#58 = CONICAL_SURFACE ( 'NONE', #121, 0.9499999999999992895, 0.7853981633974503884 ) ;
#59 = ADVANCED_FACE ( 'NONE', ( #167 ), #86, .T. ) ;
#60 = DIRECTION ( 'NONE',  ( -0.0000000000000000000, 1.224646799147353454E-16, -1.000000000000000000 ) ) ;
#61 = VECTOR ( 'NONE', #229, 1000.000000000000000 ) ;
#62 = CC_DESIGN_PERSON_AND_ORGANIZATION_ASSIGNMENT ( #43, #46, ( #100 ) ) ;
#63 = EDGE_CURVE ( 'NONE', #205, #267, #240, .T. ) ;
#64 = ORIENTED_EDGE ( 'NONE', *, *, #175, .F. ) ;
#65 = DATE_AND_TIME ( #280, #41 ) ;
#66 = ORIENTED_EDGE ( 'NONE', *, *, #45, .T. ) ;
#67 =( LENGTH_UNIT ( ) NAMED_UNIT ( * ) SI_UNIT ( .MILLI., .METRE. ) );
#68 = ORIENTED_EDGE ( 'NONE', *, *, #225, .T. ) ;
#69 = SECURITY_CLASSIFICATION_LEVEL ( 'unclassified' ) ;
#70 = AXIS2_PLACEMENT_3D ( 'NONE', #213, #122, #82 ) ;
#71 = EDGE_CURVE ( 'NONE', #106, #282, #292, .T. ) ;
#72 = APPROVAL_ROLE ( '' ) ;
#73 = DATE_TIME_ROLE ( 'classification_date' ) ;
#74 = SPHERICAL_SURFACE ( 'NONE', #251, 3.100999999999999979 ) ;
#75 = CARTESIAN_POINT ( 'NONE',  ( 0.6300432552928489915, 2.118853413705051647, 1.862525104166261603 ) ) ;
#76 = AXIS2_PLACEMENT_3D ( 'NONE', #181, #54, #31 ) ;
#77 = DIRECTION ( 'NONE',  ( -0.0000000000000000000, 1.224646799147353454E-16, -1.000000000000000000 ) ) ;
#78 = EDGE_CURVE ( 'NONE', #267, #16, #116, .T. ) ;
#79 = DIRECTION ( 'NONE',  ( 0.0000000000000000000, 1.000000000000000000, 1.398519409849086818E-16 ) ) ;
#80 = EDGE_LOOP ( 'NONE', ( #128, #172, #275, #276 ) ) ;
#81 = PERSON ( 'UNSPECIFIED', 'UNSPECIFIED', 'UNSPECIFIED', ('UNSPECIFIED'), ('UNSPECIFIED'), ('UNSPECIFIED') ) ;
#82 = DIRECTION ( 'NONE',  ( -1.398519409849086818E-16, 1.000000000000000000, 0.0000000000000000000 ) ) ;
#83 = PLANE ( 'NONE',  #273 ) ;
#84 = ADVANCED_FACE ( 'NONE', ( #129 ), #83, .T. ) ;
#85 = FACE_OUTER_BOUND ( 'NONE', #80, .T. ) ;
#86 = CYLINDRICAL_SURFACE ( 'NONE', #102, 1.000000000000000222 ) ;
#87 = CALENDAR_DATE ( 2019, 24, 10 ) ;
#88 = LINE ( 'NONE', #158, #114 ) ;
#89 = CARTESIAN_POINT ( 'NONE',  ( 0.6300432552928489915, 1.168853413705051913, 1.011627240079497003 ) ) ;
#90 = APPLICATION_CONTEXT ( 'configuration controlled 3d designs of mechanical parts and assemblies' ) ;
#91 = AXIS2_PLACEMENT_3D ( 'NONE', #113, #221, #239 ) ;
#92 = CARTESIAN_POINT ( 'NONE',  ( 0.6300432552928489915, 1.168853413705051913, 1.862525104166261380 ) ) ;
#93 = APPROVAL ( #272, 'UNSPECIFIED' ) ;
#94 = LINE ( 'NONE', #257, #300 ) ;
#95 = PERSON_AND_ORGANIZATION_ROLE ( 'classification_officer' ) ;
#96 = DIRECTION ( 'NONE',  ( 0.0000000000000000000, -1.224646799147353454E-16, 1.000000000000000000 ) ) ;
#97 = COORDINATED_UNIVERSAL_TIME_OFFSET ( 5, 0, .BEHIND. ) ;
#98 = CARTESIAN_POINT ( 'NONE',  ( 0.6300432552928489915, 1.168853413705051913, 1.011627240079497003 ) ) ;
#99 = EDGE_LOOP ( 'NONE', ( #196, #66 ) ) ;
#100 = PRODUCT_DEFINITION ( 'UNKNOWN', '', #130, #200 ) ;
#101 = DIRECTION ( 'NONE',  ( -0.0000000000000000000, 1.224646799147353454E-16, -1.000000000000000000 ) ) ;
#102 = AXIS2_PLACEMENT_3D ( 'NONE', #89, #37, #14 ) ;
#103 = EDGE_LOOP ( 'NONE', ( #233, #118, #268, #284 ) ) ;
#104 = FACE_OUTER_BOUND ( 'NONE', #17, .T. ) ;
#105 = ADVANCED_FACE ( 'NONE', ( #224 ), #157, .T. ) ;
#106 = VERTEX_POINT ( 'NONE', #162 ) ;
#107 = DIRECTION ( 'NONE',  ( -0.0000000000000000000, 1.224646799147353454E-16, -1.000000000000000000 ) ) ;
#108 = LINE ( 'NONE', #247, #51 ) ;
#109 = COORDINATED_UNIVERSAL_TIME_OFFSET ( 5, 0, .BEHIND. ) ;
#110 = AXIS2_PLACEMENT_3D ( 'NONE', #6, #255, #185 ) ;
#111 = AXIS2_PLACEMENT_3D ( 'NONE', #246, #204, #287 ) ;
#112 = FACE_OUTER_BOUND ( 'NONE', #7, .T. ) ;
#113 = CARTESIAN_POINT ( 'NONE',  ( 0.6300432552928489915, 1.168853413705051913, 1.011627240079497003 ) ) ;
#114 = VECTOR ( 'NONE', #232, 1000.000000000000000 ) ;
#115 = CC_DESIGN_DATE_AND_TIME_ASSIGNMENT ( #222, #238, ( #100 ) ) ;
#116 = CIRCLE ( 'NONE', #152, 0.9499999999999996225 ) ;
#117 = CONICAL_SURFACE ( 'NONE', #91, 0.9499999999999992895, 0.7853981633974503884 ) ;
#118 = ORIENTED_EDGE ( 'NONE', *, *, #288, .T. ) ;
#119 = DIRECTION ( 'NONE',  ( 0.0000000000000000000, -1.224646799147353454E-16, 1.000000000000000000 ) ) ;
#120 = AXIS2_PLACEMENT_3D ( 'NONE', #142, #4, #281 ) ;
#121 = AXIS2_PLACEMENT_3D ( 'NONE', #2, #96, #189 ) ;
#122 = DIRECTION ( 'NONE',  ( 1.000000000000000000, 1.224646799147353207E-16, 1.499759782661857882E-32 ) ) ;
#123 = VERTEX_POINT ( 'NONE', #212 ) ;
#124 = PERSON_AND_ORGANIZATION ( #81, #177 ) ;
#125 = CARTESIAN_POINT ( 'NONE',  ( 0.6300432552928489915, 1.168853413705051913, 1.812525104166261114 ) ) ;
#126 = DIRECTION ( 'NONE',  ( -0.0000000000000000000, 1.224646799147353454E-16, -1.000000000000000000 ) ) ;
#127 = ORIENTED_EDGE ( 'NONE', *, *, #296, .F. ) ;
#128 = ORIENTED_EDGE ( 'NONE', *, *, #166, .F. ) ;
#129 = FACE_OUTER_BOUND ( 'NONE', #99, .T. ) ;
#130 = PRODUCT_DEFINITION_FORMATION_WITH_SPECIFIED_SOURCE ( 'ANY', '', #27, .NOT_KNOWN. ) ;
#131 = CONICAL_SURFACE ( 'NONE', #57, 1.000000000000000222, 0.7853981633974482790 ) ;
#132 = AXIS2_PLACEMENT_3D ( 'NONE', #250, #147, #56 ) ;
#133 = AXIS2_PLACEMENT_3D ( 'NONE', #35, #10, #165 ) ;
#134 = CIRCLE ( 'NONE', #111, 0.9499999999999992895 ) ;
#135 = APPROVAL_DATE_TIME ( #194, #93 ) ;
#136 = PERSON_AND_ORGANIZATION_ROLE ( 'design_owner' ) ;
#137 = ORIENTED_EDGE ( 'NONE', *, *, #63, .T. ) ;
#138 = DIRECTION ( 'NONE',  ( 1.000000000000000000, 0.0000000000000000000, 0.0000000000000000000 ) ) ;
#139 = VERTEX_POINT ( 'NONE', #228 ) ;
#140 = ORIENTED_EDGE ( 'NONE', *, *, #39, .F. ) ;
#141 = DIRECTION ( 'NONE',  ( -0.0000000000000000000, 1.224646799147353454E-16, -1.000000000000000000 ) ) ;
#142 = CARTESIAN_POINT ( 'NONE',  ( 0.6300432552928489915, 1.168853413705051913, 1.061627240079497714 ) ) ;
#143 = DIRECTION ( 'NONE',  ( 0.0000000000000000000, -0.7071067811865490160, 0.7071067811865460184 ) ) ;
#144 = FACE_OUTER_BOUND ( 'NONE', #183, .T. ) ;
#145 = CC_DESIGN_PERSON_AND_ORGANIZATION_ASSIGNMENT ( #217, #95, ( #297 ) ) ;
#146 = ADVANCED_BREP_SHAPE_REPRESENTATION ( 'TTN162613-E0W', ( #38, #19 ), #5 ) ;
#147 = DIRECTION ( 'NONE',  ( 1.000000000000000000, 0.0000000000000000000, -0.0000000000000000000 ) ) ;
#148 = CARTESIAN_POINT ( 'NONE',  ( 0.6300432552928489915, 0.2188534137050526240, 1.011627240079496781 ) ) ;
#149 = CIRCLE ( 'NONE', #120, 1.000000000000000222 ) ;
#150 = AXIS2_PLACEMENT_3D ( 'NONE', #92, #141, #30 ) ;
#151 = CALENDAR_DATE ( 2019, 24, 10 ) ;
#152 = AXIS2_PLACEMENT_3D ( 'NONE', #216, #60, #286 ) ;
#153 = VECTOR ( 'NONE', #143, 1000.000000000000114 ) ;
#154 = PERSON_AND_ORGANIZATION ( #81, #177 ) ;
#155 = PERSON_AND_ORGANIZATION ( #81, #177 ) ;
#156 = APPROVAL_STATUS ( 'not_yet_approved' ) ;
#157 = CYLINDRICAL_SURFACE ( 'NONE', #291, 1.000000000000000222 ) ;
#158 = CARTESIAN_POINT ( 'NONE',  ( 0.6300432552928489915, 2.168853413705051913, 1.011627240079497225 ) ) ;
#159 = ADVANCED_FACE ( 'NONE', ( #112 ), #215, .T. ) ;
#160 = DIRECTION ( 'NONE',  ( -0.0000000000000000000, 1.224646799147353454E-16, -1.000000000000000000 ) ) ;
#161 = EDGE_CURVE ( 'NONE', #139, #179, #237, .T. ) ;
#162 = CARTESIAN_POINT ( 'NONE',  ( 0.6300432552928491026, 0.1688534137050518302, 1.812525104166260892 ) ) ;
#163 = ORIENTED_EDGE ( 'NONE', *, *, #187, .T. ) ;
#164 = EDGE_LOOP ( 'NONE', ( #243, #262, #198, #163 ) ) ;
#165 = DIRECTION ( 'NONE',  ( 0.0000000000000000000, 0.0000000000000000000, 1.000000000000000000 ) ) ;
#166 = EDGE_CURVE ( 'NONE', #16, #106, #94, .T. ) ;
#167 = FACE_OUTER_BOUND ( 'NONE', #164, .T. ) ;
#168 = SHAPE_DEFINITION_REPRESENTATION ( #265, #146 ) ;
#169 = CC_DESIGN_SECURITY_CLASSIFICATION ( #297, ( #130 ) ) ;
#170 = VECTOR ( 'NONE', #53, 1000.000000000000000 ) ;
#171 = APPROVAL_PERSON_ORGANIZATION ( #155, #93, #72 ) ;
#172 = ORIENTED_EDGE ( 'NONE', *, *, #296, .T. ) ;
#173 = CLOSED_SHELL ( 'NONE', ( #50, #248, #159, #105, #84, #59, #11, #245, #23 ) ) ;
#174 = CARTESIAN_POINT ( 'NONE',  ( 0.0000000000000000000, 0.0000000000000000000, 0.0000000000000000000 ) ) ;
#175 = EDGE_CURVE ( 'NONE', #123, #249, #40, .T. ) ;
#176 = ORIENTED_EDGE ( 'NONE', *, *, #197, .T. ) ;
#177 = ORGANIZATION ( 'UNSPECIFIED', 'UNSPECIFIED', '' ) ;
#178 = APPLICATION_CONTEXT ( 'configuration controlled 3d designs of mechanical parts and assemblies' ) ;
#179 = VERTEX_POINT ( 'NONE', #29 ) ;
#180 = CARTESIAN_POINT ( 'NONE',  ( 0.6300432552928489915, 2.168853413705051913, 1.812525104166261336 ) ) ;
#181 = CARTESIAN_POINT ( 'NONE',  ( 0.6300432552928489915, 1.168853413705051913, 1.812525104166261114 ) ) ;
#182 = CARTESIAN_POINT ( 'NONE',  ( 0.6300432552928489915, 1.168853413705051691, 2.011627240079497447 ) ) ;
#183 = EDGE_LOOP ( 'NONE', ( #206, #137, #127 ) ) ;
#184 = APPROVAL_PERSON_ORGANIZATION ( #253, #25, #270 ) ;
#185 = DIRECTION ( 'NONE',  ( 0.0000000000000000000, 1.000000000000000000, 2.282530889443168994E-16 ) ) ;
#186 = CARTESIAN_POINT ( 'NONE',  ( 0.6300432552928489915, 1.168853413705051913, 1.812525104166261114 ) ) ;
#187 = EDGE_CURVE ( 'NONE', #249, #123, #149, .T. ) ;
#188 = CARTESIAN_POINT ( 'NONE',  ( 0.6300432552928489915, 1.168853413705051913, 1.011627240079497003 ) ) ;
#189 = DIRECTION ( 'NONE',  ( 0.0000000000000000000, -1.000000000000000000, -2.282530889443168994E-16 ) ) ;
#190 = CIRCLE ( 'NONE', #70, 3.100999999999999535 ) ;
#191 = CC_DESIGN_PERSON_AND_ORGANIZATION_ASSIGNMENT ( #124, #201, ( #130 ) ) ;
#192 = UNCERTAINTY_MEASURE_WITH_UNIT (LENGTH_MEASURE( 1.000000000000000082E-05 ), #67, 'distance_accuracy_value', 'NONE');
#193 = ORIENTED_EDGE ( 'NONE', *, *, #161, .F. ) ;
#194 = DATE_AND_TIME ( #199, #285 ) ;
#195 = AXIS2_PLACEMENT_3D ( 'NONE', #32, #12, #289 ) ;
#196 = ORIENTED_EDGE ( 'NONE', *, *, #161, .T. ) ;
#197 = EDGE_CURVE ( 'NONE', #139, #123, #219, .T. ) ;
#198 = ORIENTED_EDGE ( 'NONE', *, *, #261, .T. ) ;
#199 = CALENDAR_DATE ( 2019, 24, 10 ) ;
#200 = DESIGN_CONTEXT ( 'detailed design', #178, 'design' ) ;
#201 = PERSON_AND_ORGANIZATION_ROLE ( 'creator' ) ;
#202 = EDGE_LOOP ( 'NONE', ( #15, #68, #269 ) ) ;
#203 = CIRCLE ( 'NONE', #76, 1.000000000000000222 ) ;
#204 = DIRECTION ( 'NONE',  ( -0.0000000000000000000, 1.224646799147353454E-16, -1.000000000000000000 ) ) ;
#205 = VERTEX_POINT ( 'NONE', #182 ) ;
#206 = ORIENTED_EDGE ( 'NONE', *, *, #225, .F. ) ;
#207 = CARTESIAN_POINT ( 'NONE',  ( 0.6300432552928489915, 1.168853413705051913, 1.061627240079497714 ) ) ;
#208 = COORDINATED_UNIVERSAL_TIME_OFFSET ( 5, 0, .BEHIND. ) ;
#209 = CC_DESIGN_APPROVAL ( #294, ( #100 ) ) ;
#210 = CARTESIAN_POINT ( 'NONE',  ( 0.6300432552928489915, 1.168853413705051913, -1.089372759920502975 ) ) ;
#211 = CARTESIAN_POINT ( 'NONE',  ( 0.6300432552928491026, 0.2188534137050522910, 1.862525104166261158 ) ) ;
#212 = CARTESIAN_POINT ( 'NONE',  ( 0.6300432552928491026, 0.1688534137050518302, 1.061627240079497492 ) ) ;
#213 = CARTESIAN_POINT ( 'NONE',  ( 0.6300432552928489915, 1.168853413705051913, -1.089372759920502975 ) ) ;
#214 = DIRECTION ( 'NONE',  ( 0.0000000000000000000, 1.000000000000000000, 2.168404344971008375E-16 ) ) ;
#215 = CONICAL_SURFACE ( 'NONE', #55, 1.000000000000000222, 0.7853981633974482790 ) ;
#216 = CARTESIAN_POINT ( 'NONE',  ( 0.6300432552928489915, 1.168853413705051913, 1.862525104166261380 ) ) ;
#217 = PERSON_AND_ORGANIZATION ( #81, #177 ) ;
#218 = ORIENTED_EDGE ( 'NONE', *, *, #45, .F. ) ;
#219 = LINE ( 'NONE', #148, #153 ) ;
#220 = CIRCLE ( 'NONE', #150, 0.9499999999999996225 ) ;
#221 = DIRECTION ( 'NONE',  ( 0.0000000000000000000, -1.224646799147353454E-16, 1.000000000000000000 ) ) ;
#222 = DATE_AND_TIME ( #263, #36 ) ;
#223 = CC_DESIGN_PERSON_AND_ORGANIZATION_ASSIGNMENT ( #227, #49, ( #130 ) ) ;
#224 = FACE_OUTER_BOUND ( 'NONE', #103, .T. ) ;
#225 = EDGE_CURVE ( 'NONE', #205, #16, #190, .T. ) ;
#226 = ORIENTED_EDGE ( 'NONE', *, *, #166, .T. ) ;
#227 = PERSON_AND_ORGANIZATION ( #81, #177 ) ;
#228 = CARTESIAN_POINT ( 'NONE',  ( 0.6300432552928489915, 0.2188534137050526240, 1.011627240079496781 ) ) ;
#229 = DIRECTION ( 'NONE',  ( 8.659560562354952580E-17, 0.7071067811865489050, 0.7071067811865462405 ) ) ;
#230 = DIRECTION ( 'NONE',  ( 0.0000000000000000000, 1.000000000000000000, 2.168404344971008375E-16 ) ) ;
#231 = LINE ( 'NONE', #180, #170 ) ;
#232 = DIRECTION ( 'NONE',  ( -0.0000000000000000000, 1.224646799147353454E-16, -1.000000000000000000 ) ) ;
#233 = ORIENTED_EDGE ( 'NONE', *, *, #274, .T. ) ;
#234 = LOCAL_TIME ( 10, 0, 31.00000000000000000, #97 ) ;
#235 = ORIENTED_EDGE ( 'NONE', *, *, #197, .F. ) ;
#236 = DATE_AND_TIME ( #151, #26 ) ;
#237 = CIRCLE ( 'NONE', #110, 0.9499999999999992895 ) ;
#238 = DATE_TIME_ROLE ( 'creation_date' ) ;
#239 = DIRECTION ( 'NONE',  ( 0.0000000000000000000, -1.000000000000000000, -2.282530889443168994E-16 ) ) ;
#240 = CIRCLE ( 'NONE', #133, 3.101000000000000423 ) ;
#241 = PERSON_AND_ORGANIZATION ( #81, #177 ) ;
#242 = APPROVAL_ROLE ( '' ) ;
#243 = ORIENTED_EDGE ( 'NONE', *, *, #288, .F. ) ;
#244 = FACE_OUTER_BOUND ( 'NONE', #202, .T. ) ;
#245 = ADVANCED_FACE ( 'NONE', ( #144 ), #33, .T. ) ;
#246 = CARTESIAN_POINT ( 'NONE',  ( 0.6300432552928489915, 1.168853413705051913, 1.011627240079497003 ) ) ;
#247 = CARTESIAN_POINT ( 'NONE',  ( 0.6300432552928491026, 0.1688534137050518302, 1.011627240079496781 ) ) ;
#248 = ADVANCED_FACE ( 'NONE', ( #244 ), #74, .T. ) ;
#249 = VERTEX_POINT ( 'NONE', #254 ) ;
#250 = CARTESIAN_POINT ( 'NONE',  ( 0.6300432552928489915, 1.168853413705051913, -1.089372759920502975 ) ) ;
#251 = AXIS2_PLACEMENT_3D ( 'NONE', #210, #24, #79 ) ;
#252 = EDGE_LOOP ( 'NONE', ( #218, #260, #64, #235 ) ) ;
#253 = PERSON_AND_ORGANIZATION ( #81, #177 ) ;
#254 = CARTESIAN_POINT ( 'NONE',  ( 0.6300432552928489915, 2.168853413705051913, 1.061627240079497936 ) ) ;
#255 = DIRECTION ( 'NONE',  ( -0.0000000000000000000, 1.224646799147353454E-16, -1.000000000000000000 ) ) ;
#256 = CARTESIAN_POINT ( 'NONE',  ( 0.6300432552928491026, 2.118853413705051203, 1.011627240079497225 ) ) ;
#257 = CARTESIAN_POINT ( 'NONE',  ( 0.6300432552928491026, 0.1688534137050518302, 1.812525104166260892 ) ) ;
#258 = CC_DESIGN_APPROVAL ( #93, ( #297 ) ) ;
#259 = DIRECTION ( 'NONE',  ( 0.0000000000000000000, 1.000000000000000000, 1.224646799147353454E-16 ) ) ;
#260 = ORIENTED_EDGE ( 'NONE', *, *, #34, .T. ) ;
#261 = EDGE_CURVE ( 'NONE', #282, #249, #88, .T. ) ;
#262 = ORIENTED_EDGE ( 'NONE', *, *, #71, .T. ) ;
#263 = CALENDAR_DATE ( 2019, 24, 10 ) ;
#264 = CC_DESIGN_DATE_AND_TIME_ASSIGNMENT ( #236, #73, ( #297 ) ) ;
#265 = PRODUCT_DEFINITION_SHAPE ( 'NONE', 'NONE',  #100 ) ;
#266 = LINE ( 'NONE', #256, #61 ) ;
#267 = VERTEX_POINT ( 'NONE', #75 ) ;
#268 = ORIENTED_EDGE ( 'NONE', *, *, #175, .T. ) ;
#269 = ORIENTED_EDGE ( 'NONE', *, *, #78, .F. ) ;
#270 = APPROVAL_ROLE ( '' ) ;
#271 = COORDINATED_UNIVERSAL_TIME_OFFSET ( 5, 0, .BEHIND. ) ;
#272 = APPROVAL_STATUS ( 'not_yet_approved' ) ;
#273 = AXIS2_PLACEMENT_3D ( 'NONE', #188, #107, #259 ) ;
#274 = EDGE_CURVE ( 'NONE', #282, #106, #203, .T. ) ;
#275 = ORIENTED_EDGE ( 'NONE', *, *, #39, .T. ) ;
#276 = ORIENTED_EDGE ( 'NONE', *, *, #71, .F. ) ;
#277 = PRODUCT_RELATED_PRODUCT_CATEGORY ( 'detail', '', ( #27 ) ) ;
#278 = AXIS2_PLACEMENT_3D ( 'NONE', #207, #119, #28 ) ;
#279 = CARTESIAN_POINT ( 'NONE',  ( 0.6300432552928489915, 2.168853413705051913, 1.812525104166261336 ) ) ;
#280 = CALENDAR_DATE ( 2019, 24, 10 ) ;
#281 = DIRECTION ( 'NONE',  ( 0.0000000000000000000, 1.000000000000000000, 2.168404344971008375E-16 ) ) ;
#282 = VERTEX_POINT ( 'NONE', #279 ) ;
#283 = DIRECTION ( 'NONE',  ( 0.0000000000000000000, 1.000000000000000000, 2.168404344971008375E-16 ) ) ;
#284 = ORIENTED_EDGE ( 'NONE', *, *, #261, .F. ) ;
#285 = LOCAL_TIME ( 10, 0, 31.00000000000000000, #208 ) ;
#286 = DIRECTION ( 'NONE',  ( 0.0000000000000000000, 1.000000000000000000, 2.282530889443168008E-16 ) ) ;
#287 = DIRECTION ( 'NONE',  ( 0.0000000000000000000, 1.000000000000000000, 2.282530889443168994E-16 ) ) ;
#288 = EDGE_CURVE ( 'NONE', #106, #123, #108, .T. ) ;
#289 = DIRECTION ( 'NONE',  ( 0.0000000000000000000, 1.000000000000000000, 2.168404344971008375E-16 ) ) ;
#290 = COORDINATED_UNIVERSAL_TIME_OFFSET ( 5, 0, .BEHIND. ) ;
#291 = AXIS2_PLACEMENT_3D ( 'NONE', #98, #160, #230 ) ;
#292 = CIRCLE ( 'NONE', #195, 1.000000000000000222 ) ;
#293 = FACE_OUTER_BOUND ( 'NONE', #252, .T. ) ;
#294 = APPROVAL ( #301, 'UNSPECIFIED' ) ;
#295 = APPLICATION_PROTOCOL_DEFINITION ( 'international standard', 'config_control_design', 1994, #90 ) ;
#296 = EDGE_CURVE ( 'NONE', #16, #267, #220, .T. ) ;
#297 = SECURITY_CLASSIFICATION ( '', '', #69 ) ;
#298 = DIRECTION ( 'NONE',  ( 0.0000000000000000000, 0.0000000000000000000, 1.000000000000000000 ) ) ;
#299 = ORIENTED_EDGE ( 'NONE', *, *, #78, .T. ) ;
#300 = VECTOR ( 'NONE', #9, 1000.000000000000000 ) ;
#301 = APPROVAL_STATUS ( 'not_yet_approved' ) ;
ENDSEC;
END-ISO-10303-21;
