ISO-10303-21;
HEADER;
FILE_DESCRIPTION (( 'STEP AP203' ),
    '1' );
FILE_NAME ('Web Model 43772_43778.step',
    '2018-03-12T19:20:49',
    ( '' ),
    ( '' ),
    'SwSTEP 2.0',
    'SolidWorks 2016',
    '' );
FILE_SCHEMA (( 'CONFIG_CONTROL_DESIGN' ));
ENDSEC;

DATA;
#1 = ORIENTED_EDGE ( 'NONE', *, *, #123, .T. ) ;
#2 = PERSON_AND_ORGANIZATION ( #169, #135 ) ;
#3 = VECTOR ( 'NONE', #113, 1000.000000000000000 ) ;
#4 = CARTESIAN_POINT ( 'NONE',  ( 3.000000000000000000, 6.350000000000000500, 6.349999999999997900 ) ) ;
#5 = CALENDAR_DATE ( 2018, 12, 3 ) ;
#6 = ORIENTED_EDGE ( 'NONE', *, *, #210, .F. ) ;
#7 = PERSON_AND_ORGANIZATION ( #169, #135 ) ;
#8 = VECTOR ( 'NONE', #115, 1000.000000000000000 ) ;
#9 =( NAMED_UNIT ( * ) PLANE_ANGLE_UNIT ( ) SI_UNIT ( $, .RADIAN. ) );
#10 = APPROVAL_ROLE ( '' ) ;
#11 = LOCAL_TIME ( 15, 20, 49.00000000000000000, #178 ) ;
#12 = PERSON_AND_ORGANIZATION ( #169, #135 ) ;
#13 = CC_DESIGN_DATE_AND_TIME_ASSIGNMENT ( #36, #136, ( #28 ) ) ;
#14 = FACE_OUTER_BOUND ( 'NONE', #78, .T. ) ;
#15 = VERTEX_POINT ( 'NONE', #163 ) ;
#16 = CARTESIAN_POINT ( 'NONE',  ( 3.000000000000000000, 6.350000000000000500, -6.349999999999999600 ) ) ;
#17 = AXIS2_PLACEMENT_3D ( 'NONE', #164, #199, #200 ) ;
#18 = DIRECTION ( 'NONE',  ( 0.0000000000000000000, -0.0000000000000000000, -1.000000000000000000 ) ) ;
#19 = APPROVAL_PERSON_ORGANIZATION ( #158, #71, #134 ) ;
#20 = FACE_OUTER_BOUND ( 'NONE', #150, .T. ) ;
#21 = APPLICATION_CONTEXT ( 'configuration controlled 3d designs of mechanical parts and assemblies' ) ;
#22 = DIRECTION ( 'NONE',  ( 0.0000000000000000000, 0.0000000000000000000, -1.000000000000000000 ) ) ;
#23 = VERTEX_POINT ( 'NONE', #215 ) ;
#24 = VECTOR ( 'NONE', #22, 1000.000000000000000 ) ;
#25 = VERTEX_POINT ( 'NONE', #65 ) ;
#26 = PERSON_AND_ORGANIZATION ( #169, #135 ) ;
#27 = CARTESIAN_POINT ( 'NONE',  ( 3.000000000000000000, 6.350000000000000500, 6.349999999999997900 ) ) ;
#28 = PRODUCT_DEFINITION ( 'UNKNOWN', '', #126, #226 ) ;
#29 = LINE ( 'NONE', #196, #62 ) ;
#30 = LOCAL_TIME ( 15, 20, 49.00000000000000000, #89 ) ;
#31 = VECTOR ( 'NONE', #42, 1000.000000000000000 ) ;
#32 = ORIENTED_EDGE ( 'NONE', *, *, #74, .F. ) ;
#33 = DIRECTION ( 'NONE',  ( 1.000000000000000000, 0.0000000000000000000, 0.0000000000000000000 ) ) ;
#34 = DIRECTION ( 'NONE',  ( -0.0000000000000000000, -0.0000000000000000000, 1.000000000000000000 ) ) ;
#35 = LINE ( 'NONE', #27, #92 ) ;
#36 = DATE_AND_TIME ( #90, #183 ) ;
#37 = CC_DESIGN_PERSON_AND_ORGANIZATION_ASSIGNMENT ( #44, #159, ( #126 ) ) ;
#38 = ORIENTED_EDGE ( 'NONE', *, *, #140, .F. ) ;
#39 = SECURITY_CLASSIFICATION_LEVEL ( 'unclassified' ) ;
#40 = PRODUCT_RELATED_PRODUCT_CATEGORY ( 'detail', '', ( #114 ) ) ;
#41 = DATE_AND_TIME ( #109, #97 ) ;
#42 = DIRECTION ( 'NONE',  ( 0.0000000000000000000, -1.000000000000000000, 2.048885995248197400E-016 ) ) ;
#43 = LINE ( 'NONE', #122, #202 ) ;
#44 = PERSON_AND_ORGANIZATION ( #169, #135 ) ;
#45 = ORIENTED_EDGE ( 'NONE', *, *, #88, .T. ) ;
#46 = CALENDAR_DATE ( 2018, 12, 3 ) ;
#47 = EDGE_CURVE ( 'NONE', #139, #148, #43, .T. ) ;
#48 = EDGE_LOOP ( 'NONE', ( #103, #67, #6, #118 ) ) ;
#49 = ADVANCED_FACE ( 'NONE', ( #14 ), #168, .F. ) ;
#50 = VECTOR ( 'NONE', #101, 1000.000000000000000 ) ;
#51 = CARTESIAN_POINT ( 'NONE',  ( 3.000000000000000000, 6.350000000000000500, -6.349999999999999600 ) ) ;
#52 = ORIENTED_EDGE ( 'NONE', *, *, #132, .F. ) ;
#53 = COORDINATED_UNIVERSAL_TIME_OFFSET ( 5, 0, .BEHIND. ) ;
#54 = CARTESIAN_POINT ( 'NONE',  ( 3.000000000000000000, -6.349999999999997900, 6.350000000000000500 ) ) ;
#55 = CARTESIAN_POINT ( 'NONE',  ( 3.000000000000000000, -6.349999999999997900, 6.350000000000000500 ) ) ;
#56 = AXIS2_PLACEMENT_3D ( 'NONE', #76, #204, #154 ) ;
#57 =( NAMED_UNIT ( * ) SI_UNIT ( $, .STERADIAN. ) SOLID_ANGLE_UNIT ( ) );
#58 = SHAPE_DEFINITION_REPRESENTATION ( #129, #223 ) ;
#59 = APPROVAL_STATUS ( 'not_yet_approved' ) ;
#60 = EDGE_CURVE ( 'NONE', #25, #15, #29, .T. ) ;
#61 = DATE_TIME_ROLE ( 'classification_date' ) ;
#62 = VECTOR ( 'NONE', #222, 1000.000000000000000 ) ;
#63 = AXIS2_PLACEMENT_3D ( 'NONE', #209, #187, #85 ) ;
#64 = ORIENTED_EDGE ( 'NONE', *, *, #47, .F. ) ;
#65 = CARTESIAN_POINT ( 'NONE',  ( 3.000000000000000000, -6.349999999999997900, -6.350000000000002300 ) ) ;
#66 = EDGE_CURVE ( 'NONE', #185, #148, #35, .T. ) ;
#67 = ORIENTED_EDGE ( 'NONE', *, *, #60, .F. ) ;
#68 = CARTESIAN_POINT ( 'NONE',  ( -3.000000000000000000, 0.0000000000000000000, 0.0000000000000000000 ) ) ;
#69 = ORIENTED_EDGE ( 'NONE', *, *, #66, .F. ) ;
#70 = CARTESIAN_POINT ( 'NONE',  ( 3.000000000000000000, 6.350000000000000500, 6.349999999999997900 ) ) ;
#71 = APPROVAL ( #211, 'UNSPECIFIED' ) ;
#72 = ADVANCED_FACE ( 'NONE', ( #86 ), #95, .F. ) ;
#73 = DIRECTION ( 'NONE',  ( -1.000000000000000000, -0.0000000000000000000, -0.0000000000000000000 ) ) ;
#74 = EDGE_CURVE ( 'NONE', #23, #15, #191, .T. ) ;
#75 = EDGE_LOOP ( 'NONE', ( #104, #198, #52, #87 ) ) ;
#76 = CARTESIAN_POINT ( 'NONE',  ( 3.000000000000000000, -6.349999999999997900, 6.350000000000000500 ) ) ;
#77 = CC_DESIGN_APPROVAL ( #177, ( #102 ) ) ;
#78 = EDGE_LOOP ( 'NONE', ( #1, #153, #180, #128 ) ) ;
#79 = APPROVAL_DATE_TIME ( #41, #71 ) ;
#80 = CARTESIAN_POINT ( 'NONE',  ( -3.000000000000000000, 6.350000000000000500, 6.349999999999997900 ) ) ;
#81 = CARTESIAN_POINT ( 'NONE',  ( 3.000000000000000000, 6.350000000000000500, 6.349999999999997900 ) ) ;
#82 = APPLICATION_PROTOCOL_DEFINITION ( 'international standard', 'config_control_design', 1994, #21 ) ;
#83 = ORIENTED_EDGE ( 'NONE', *, *, #132, .T. ) ;
#84 = DATE_AND_TIME ( #5, #30 ) ;
#85 = DIRECTION ( 'NONE',  ( 0.0000000000000000000, 0.0000000000000000000, -1.000000000000000000 ) ) ;
#86 = FACE_OUTER_BOUND ( 'NONE', #228, .T. ) ;
#87 = ORIENTED_EDGE ( 'NONE', *, *, #60, .T. ) ;
#88 = EDGE_CURVE ( 'NONE', #194, #185, #179, .T. ) ;
#89 = COORDINATED_UNIVERSAL_TIME_OFFSET ( 5, 0, .BEHIND. ) ;
#90 = CALENDAR_DATE ( 2018, 12, 3 ) ;
#91 = ADVANCED_FACE ( 'NONE', ( #117 ), #181, .F. ) ;
#92 = VECTOR ( 'NONE', #165, 1000.000000000000000 ) ;
#93 = ORIENTED_EDGE ( 'NONE', *, *, #88, .F. ) ;
#94 = EDGE_CURVE ( 'NONE', #194, #139, #147, .T. ) ;
#95 = PLANE ( 'NONE',  #217 ) ;
#96 = PLANE ( 'NONE',  #186 ) ;
#97 = LOCAL_TIME ( 15, 20, 49.00000000000000000, #192 ) ;
#98 = AXIS2_PLACEMENT_3D ( 'NONE', #70, #220, #18 ) ;
#99 = ORIENTED_EDGE ( 'NONE', *, *, #47, .T. ) ;
#100 = VECTOR ( 'NONE', #155, 1000.000000000000000 ) ;
#101 = DIRECTION ( 'NONE',  ( -0.0000000000000000000, 1.000000000000000000, 2.048885995248197400E-016 ) ) ;
#102 = SECURITY_CLASSIFICATION ( '', '', #39 ) ;
#103 = ORIENTED_EDGE ( 'NONE', *, *, #74, .T. ) ;
#104 = ORIENTED_EDGE ( 'NONE', *, *, #140, .T. ) ;
#105 = DIRECTION ( 'NONE',  ( 1.000000000000000000, 0.0000000000000000000, 0.0000000000000000000 ) ) ;
#106 = APPROVAL_ROLE ( '' ) ;
#107 = EDGE_CURVE ( 'NONE', #112, #23, #237, .T. ) ;
#108 = PERSON_AND_ORGANIZATION ( #169, #135 ) ;
#109 = CALENDAR_DATE ( 2018, 12, 3 ) ;
#110 = LINE ( 'NONE', #130, #50 ) ;
#111 = ADVANCED_FACE ( 'NONE', ( #138 ), #96, .F. ) ;
#112 = VERTEX_POINT ( 'NONE', #55 ) ;
#113 = DIRECTION ( 'NONE',  ( -1.000000000000000000, -0.0000000000000000000, -0.0000000000000000000 ) ) ;
#114 = PRODUCT ( 'Web Model 43772_43778', 'Web Model 43772_43778', '', ( #189 ) ) ;
#115 = DIRECTION ( 'NONE',  ( -0.0000000000000000000, 1.000000000000000000, 2.048885995248197400E-016 ) ) ;
#116 = UNCERTAINTY_MEASURE_WITH_UNIT (LENGTH_MEASURE( 1.000000000000000100E-005 ), #190, 'distance_accuracy_value', 'NONE');
#117 = FACE_OUTER_BOUND ( 'NONE', #176, .T. ) ;
#118 = ORIENTED_EDGE ( 'NONE', *, *, #107, .T. ) ;
#119 = APPROVAL ( #227, 'UNSPECIFIED' ) ;
#120 = CALENDAR_DATE ( 2018, 12, 3 ) ;
#121 = APPLICATION_CONTEXT ( 'configuration controlled 3d designs of mechanical parts and assemblies' ) ;
#122 = CARTESIAN_POINT ( 'NONE',  ( -3.000000000000000000, 6.350000000000000500, 6.349999999999997900 ) ) ;
#123 = EDGE_CURVE ( 'NONE', #148, #23, #166, .T. ) ;
#124 = COORDINATED_UNIVERSAL_TIME_OFFSET ( 5, 0, .BEHIND. ) ;
#125 = CC_DESIGN_SECURITY_CLASSIFICATION ( #102, ( #126 ) ) ;
#126 = PRODUCT_DEFINITION_FORMATION_WITH_SPECIFIED_SOURCE ( 'ANY', '', #114, .NOT_KNOWN. ) ;
#127 = DIRECTION ( 'NONE',  ( 0.0000000000000000000, 0.0000000000000000000, -1.000000000000000000 ) ) ;
#128 = ORIENTED_EDGE ( 'NONE', *, *, #66, .T. ) ;
#129 = PRODUCT_DEFINITION_SHAPE ( 'NONE', 'NONE',  #28 ) ;
#130 = CARTESIAN_POINT ( 'NONE',  ( 3.000000000000000000, 6.350000000000000500, -6.349999999999999600 ) ) ;
#131 = CARTESIAN_POINT ( 'NONE',  ( 0.0000000000000000000, 0.0000000000000000000, 0.0000000000000000000 ) ) ;
#132 = EDGE_CURVE ( 'NONE', #25, #194, #110, .T. ) ;
#133 = PERSON_AND_ORGANIZATION_ROLE ( 'creator' ) ;
#134 = APPROVAL_ROLE ( '' ) ;
#135 = ORGANIZATION ( 'UNSPECIFIED', 'UNSPECIFIED', '' ) ;
#136 = DATE_TIME_ROLE ( 'creation_date' ) ;
#137 = AXIS2_PLACEMENT_3D ( 'NONE', #131, #214, #105 ) ;
#138 = FACE_OUTER_BOUND ( 'NONE', #75, .T. ) ;
#139 = VERTEX_POINT ( 'NONE', #171 ) ;
#140 = EDGE_CURVE ( 'NONE', #15, #139, #206, .T. ) ;
#141 = CC_DESIGN_PERSON_AND_ORGANIZATION_ASSIGNMENT ( #12, #231, ( #114 ) ) ;
#142 = ADVANCED_FACE ( 'NONE', ( #193 ), #184, .F. ) ;
#143 = ORIENTED_EDGE ( 'NONE', *, *, #123, .F. ) ;
#144 = ORIENTED_EDGE ( 'NONE', *, *, #94, .T. ) ;
#145 = DATE_AND_TIME ( #46, #11 ) ;
#146 = CARTESIAN_POINT ( 'NONE',  ( -3.000000000000000000, -6.349999999999997900, 6.350000000000000500 ) ) ;
#147 = LINE ( 'NONE', #51, #3 ) ;
#148 = VERTEX_POINT ( 'NONE', #162 ) ;
#149 = CC_DESIGN_PERSON_AND_ORGANIZATION_ASSIGNMENT ( #2, #160, ( #102 ) ) ;
#150 = EDGE_LOOP ( 'NONE', ( #233, #235, #83, #45 ) ) ;
#151 = DIRECTION ( 'NONE',  ( 0.0000000000000000000, -2.048885995248197400E-016, 1.000000000000000000 ) ) ;
#152 = DIRECTION ( 'NONE',  ( 0.0000000000000000000, -1.000000000000000000, -2.048885995248197400E-016 ) ) ;
#153 = ORIENTED_EDGE ( 'NONE', *, *, #107, .F. ) ;
#154 = DIRECTION ( 'NONE',  ( 0.0000000000000000000, -0.0000000000000000000, 1.000000000000000000 ) ) ;
#155 = DIRECTION ( 'NONE',  ( 0.0000000000000000000, -1.000000000000000000, 2.048885995248197400E-016 ) ) ;
#156 = APPLICATION_PROTOCOL_DEFINITION ( 'international standard', 'config_control_design', 1994, #121 ) ;
#157 = CC_DESIGN_APPROVAL ( #119, ( #126 ) ) ;
#158 = PERSON_AND_ORGANIZATION ( #169, #135 ) ;
#159 = PERSON_AND_ORGANIZATION_ROLE ( 'design_supplier' ) ;
#160 = PERSON_AND_ORGANIZATION_ROLE ( 'classification_officer' ) ;
#161 = CC_DESIGN_PERSON_AND_ORGANIZATION_ASSIGNMENT ( #7, #133, ( #126 ) ) ;
#162 = CARTESIAN_POINT ( 'NONE',  ( -3.000000000000000000, 6.350000000000000500, 6.349999999999997900 ) ) ;
#163 = CARTESIAN_POINT ( 'NONE',  ( -3.000000000000000000, -6.349999999999997900, -6.350000000000002300 ) ) ;
#164 = CARTESIAN_POINT ( 'NONE',  ( 3.000000000000000000, 6.350000000000000500, 6.349999999999997900 ) ) ;
#165 = DIRECTION ( 'NONE',  ( -1.000000000000000000, -0.0000000000000000000, -0.0000000000000000000 ) ) ;
#166 = LINE ( 'NONE', #80, #100 ) ;
#167 = CC_DESIGN_DATE_AND_TIME_ASSIGNMENT ( #145, #61, ( #102 ) ) ;
#168 = PLANE ( 'NONE',  #17 ) ;
#169 = PERSON ( 'UNSPECIFIED', 'UNSPECIFIED', 'UNSPECIFIED', ('UNSPECIFIED'), ('UNSPECIFIED'), ('UNSPECIFIED') ) ;
#170 = VECTOR ( 'NONE', #34, 1000.000000000000000 ) ;
#171 = CARTESIAN_POINT ( 'NONE',  ( -3.000000000000000000, 6.350000000000000500, -6.349999999999999600 ) ) ;
#172 = CARTESIAN_POINT ( 'NONE',  ( 3.000000000000000000, 6.350000000000000500, -6.349999999999999600 ) ) ;
#173 = CARTESIAN_POINT ( 'NONE',  ( 3.000000000000000000, -6.349999999999997900, 6.350000000000000500 ) ) ;
#174 = PERSON_AND_ORGANIZATION ( #169, #135 ) ;
#175 = VECTOR ( 'NONE', #182, 1000.000000000000000 ) ;
#176 = EDGE_LOOP ( 'NONE', ( #99, #69, #93, #144 ) ) ;
#177 = APPROVAL ( #59, 'UNSPECIFIED' ) ;
#178 = COORDINATED_UNIVERSAL_TIME_OFFSET ( 5, 0, .BEHIND. ) ;
#179 = LINE ( 'NONE', #4, #170 ) ;
#180 = ORIENTED_EDGE ( 'NONE', *, *, #201, .F. ) ;
#181 = PLANE ( 'NONE',  #98 ) ;
#182 = DIRECTION ( 'NONE',  ( 0.0000000000000000000, 0.0000000000000000000, -1.000000000000000000 ) ) ;
#183 = LOCAL_TIME ( 15, 20, 49.00000000000000000, #53 ) ;
#184 = PLANE ( 'NONE',  #56 ) ;
#185 = VERTEX_POINT ( 'NONE', #81 ) ;
#186 = AXIS2_PLACEMENT_3D ( 'NONE', #16, #151, #152 ) ;
#187 = DIRECTION ( 'NONE',  ( 1.000000000000000000, 0.0000000000000000000, 0.0000000000000000000 ) ) ;
#188 = APPROVAL_DATE_TIME ( #84, #177 ) ;
#189 = MECHANICAL_CONTEXT ( 'NONE', #21, 'mechanical' ) ;
#190 =( LENGTH_UNIT ( ) NAMED_UNIT ( * ) SI_UNIT ( .MILLI., .METRE. ) );
#191 = LINE ( 'NONE', #146, #175 ) ;
#192 = COORDINATED_UNIVERSAL_TIME_OFFSET ( 5, 0, .BEHIND. ) ;
#193 = FACE_OUTER_BOUND ( 'NONE', #48, .T. ) ;
#194 = VERTEX_POINT ( 'NONE', #172 ) ;
#195 = MANIFOLD_SOLID_BREP ( 'Boss-Extrude1', #203 ) ;
#196 = CARTESIAN_POINT ( 'NONE',  ( 3.000000000000000000, -6.349999999999997900, -6.350000000000002300 ) ) ;
#197 = CC_DESIGN_PERSON_AND_ORGANIZATION_ASSIGNMENT ( #26, #207, ( #28 ) ) ;
#198 = ORIENTED_EDGE ( 'NONE', *, *, #94, .F. ) ;
#199 = DIRECTION ( 'NONE',  ( 0.0000000000000000000, -2.048885995248197400E-016, -1.000000000000000000 ) ) ;
#200 = DIRECTION ( 'NONE',  ( 0.0000000000000000000, 1.000000000000000000, -2.048885995248197400E-016 ) ) ;
#201 = EDGE_CURVE ( 'NONE', #185, #112, #236, .T. ) ;
#202 = VECTOR ( 'NONE', #216, 1000.000000000000000 ) ;
#203 = CLOSED_SHELL ( 'NONE', ( #49, #142, #111, #91, #221, #72 ) ) ;
#204 = DIRECTION ( 'NONE',  ( -0.0000000000000000000, 1.000000000000000000, 0.0000000000000000000 ) ) ;
#205 = CARTESIAN_POINT ( 'NONE',  ( -3.000000000000000000, 6.350000000000000500, -6.349999999999999600 ) ) ;
#206 = LINE ( 'NONE', #205, #8 ) ;
#207 = PERSON_AND_ORGANIZATION_ROLE ( 'creator' ) ;
#208 = PLANE ( 'NONE',  #63 ) ;
#209 = CARTESIAN_POINT ( 'NONE',  ( 3.000000000000000000, 0.0000000000000000000, 0.0000000000000000000 ) ) ;
#210 = EDGE_CURVE ( 'NONE', #112, #25, #219, .T. ) ;
#211 = APPROVAL_STATUS ( 'not_yet_approved' ) ;
#212 = DATE_AND_TIME ( #120, #218 ) ;
#213 = VECTOR ( 'NONE', #73, 1000.000000000000000 ) ;
#214 = DIRECTION ( 'NONE',  ( 0.0000000000000000000, 0.0000000000000000000, 1.000000000000000000 ) ) ;
#215 = CARTESIAN_POINT ( 'NONE',  ( -3.000000000000000000, -6.349999999999997900, 6.350000000000000500 ) ) ;
#216 = DIRECTION ( 'NONE',  ( -0.0000000000000000000, -0.0000000000000000000, 1.000000000000000000 ) ) ;
#217 = AXIS2_PLACEMENT_3D ( 'NONE', #68, #33, #127 ) ;
#218 = LOCAL_TIME ( 15, 20, 49.00000000000000000, #124 ) ;
#219 = LINE ( 'NONE', #173, #24 ) ;
#220 = DIRECTION ( 'NONE',  ( 0.0000000000000000000, -1.000000000000000000, 0.0000000000000000000 ) ) ;
#221 = ADVANCED_FACE ( 'NONE', ( #20 ), #208, .T. ) ;
#222 = DIRECTION ( 'NONE',  ( -1.000000000000000000, -0.0000000000000000000, -0.0000000000000000000 ) ) ;
#223 = ADVANCED_BREP_SHAPE_REPRESENTATION ( 'Web Model 43772_43778', ( #195, #137 ), #234 ) ;
#224 = APPROVAL_PERSON_ORGANIZATION ( #108, #177, #106 ) ;
#225 = CC_DESIGN_APPROVAL ( #71, ( #28 ) ) ;
#226 = DESIGN_CONTEXT ( 'detailed design', #121, 'design' ) ;
#227 = APPROVAL_STATUS ( 'not_yet_approved' ) ;
#228 = EDGE_LOOP ( 'NONE', ( #143, #64, #38, #32 ) ) ;
#229 = APPROVAL_DATE_TIME ( #212, #119 ) ;
#230 = APPROVAL_PERSON_ORGANIZATION ( #174, #119, #10 ) ;
#231 = PERSON_AND_ORGANIZATION_ROLE ( 'design_owner' ) ;
#232 = CARTESIAN_POINT ( 'NONE',  ( 3.000000000000000000, 6.350000000000000500, 6.349999999999997900 ) ) ;
#233 = ORIENTED_EDGE ( 'NONE', *, *, #201, .T. ) ;
#234 =( GEOMETRIC_REPRESENTATION_CONTEXT ( 3 ) GLOBAL_UNCERTAINTY_ASSIGNED_CONTEXT ( ( #116 ) ) GLOBAL_UNIT_ASSIGNED_CONTEXT ( ( #190, #9, #57 ) ) REPRESENTATION_CONTEXT ( 'NONE', 'WORKASPACE' ) );
#235 = ORIENTED_EDGE ( 'NONE', *, *, #210, .T. ) ;
#236 = LINE ( 'NONE', #232, #31 ) ;
#237 = LINE ( 'NONE', #54, #213 ) ;
ENDSEC;
END-ISO-10303-21;
