ISO-10303-21;
HEADER;
FILE_DESCRIPTION (( 'STEP AP203' ),
    '1' );
FILE_NAME ('24990-E0W.STEP',
    '2012-09-28T16:14:58',
    ( 'Admin' ),
    ( 'Thorlabs, Inc.' ),
    'SwSTEP 2.0',
    'SolidWorks 2011',
    '' );
FILE_SCHEMA (( 'CONFIG_CONTROL_DESIGN' ));
ENDSEC;

DATA;
#1 = ORIENTED_EDGE ( 'NONE', *, *, #18, .F. ) ;
#2 = EDGE_CURVE ( 'NONE', #68, #45, #130, .T. ) ;
#3 = EDGE_LOOP ( 'NONE', ( #1, #196, #9, #52 ) ) ;
#4 = ORIENTED_EDGE ( 'NONE', *, *, #50, .T. ) ;
#5 = ORIENTED_EDGE ( 'NONE', *, *, #50, .F. ) ;
#6 = SHAPE_DEFINITION_REPRESENTATION ( #300, #211 ) ;
#7 = ADVANCED_FACE ( 'NONE', ( #190 ), #124, .T. ) ;
#8 = PRODUCT_DEFINITION_FORMATION_WITH_SPECIFIED_SOURCE ( 'ANY', '', #254, .NOT_KNOWN. ) ;
#9 = ORIENTED_EDGE ( 'NONE', *, *, #2, .T. ) ;
#10 = EDGE_CURVE ( 'NONE', #58, #45, #100, .T. ) ;
#11 = ORIENTED_EDGE ( 'NONE', *, *, #82, .F. ) ;
#12 = ORIENTED_EDGE ( 'NONE', *, *, #64, .F. ) ;
#13 = EDGE_LOOP ( 'NONE', ( #22, #24, #28 ) ) ;
#14 = EDGE_LOOP ( 'NONE', ( #56, #27, #55, #53 ) ) ;
#15 = ORIENTED_EDGE ( 'NONE', *, *, #48, .F. ) ;
#16 = ORIENTED_EDGE ( 'NONE', *, *, #2, .F. ) ;
#17 = EDGE_LOOP ( 'NONE', ( #11, #4, #195 ) ) ;
#18 = EDGE_CURVE ( 'NONE', #19, #58, #93, .T. ) ;
#19 = VERTEX_POINT ( 'NONE', #132 ) ;
#20 = DIRECTION ( 'NONE',  ( -0.0000000000000000000, -0.0000000000000000000, 1.000000000000000000 ) ) ;
#21 = ADVANCED_FACE ( 'NONE', ( #90 ), #83, .T. ) ;
#22 = ORIENTED_EDGE ( 'NONE', *, *, #37, .T. ) ;
#23 = VERTEX_POINT ( 'NONE', #168 ) ;
#24 = ORIENTED_EDGE ( 'NONE', *, *, #82, .T. ) ;
#25 = EDGE_CURVE ( 'NONE', #40, #23, #163, .T. ) ;
#26 = EDGE_LOOP ( 'NONE', ( #12, #51 ) ) ;
#27 = ORIENTED_EDGE ( 'NONE', *, *, #10, .T. ) ;
#28 = ORIENTED_EDGE ( 'NONE', *, *, #25, .F. ) ;
#29 = ORIENTED_EDGE ( 'NONE', *, *, #57, .F. ) ;
#30 = ORIENTED_EDGE ( 'NONE', *, *, #42, .T. ) ;
#31 = VERTEX_POINT ( 'NONE', #165 ) ;
#32 = EDGE_LOOP ( 'NONE', ( #33, #41, #30, #29 ) ) ;
#33 = ORIENTED_EDGE ( 'NONE', *, *, #37, .F. ) ;
#34 = APPROVAL_ROLE ( '' ) ;
#35 = EDGE_LOOP ( 'NONE', ( #43, #47, #70, #66 ) ) ;
#36 = EDGE_CURVE ( 'NONE', #40, #31, #164, .T. ) ;
#37 = EDGE_CURVE ( 'NONE', #40, #39, #88, .T. ) ;
#38 = ADVANCED_FACE ( 'NONE', ( #155 ), #156, .T. ) ;
#39 = VERTEX_POINT ( 'NONE', #136 ) ;
#40 = VERTEX_POINT ( 'NONE', #153 ) ;
#41 = ORIENTED_EDGE ( 'NONE', *, *, #36, .T. ) ;
#42 = EDGE_CURVE ( 'NONE', #31, #44, #137, .T. ) ;
#43 = ORIENTED_EDGE ( 'NONE', *, *, #48, .T. ) ;
#44 = VERTEX_POINT ( 'NONE', #187 ) ;
#45 = VERTEX_POINT ( 'NONE', #84 ) ;
#46 = ADVANCED_FACE ( 'NONE', ( #181 ), #174, .T. ) ;
#47 = ORIENTED_EDGE ( 'NONE', *, *, #59, .T. ) ;
#48 = EDGE_CURVE ( 'NONE', #45, #58, #182, .T. ) ;
#49 = ADVANCED_FACE ( 'NONE', ( #176 ), #104, .T. ) ;
#50 = EDGE_CURVE ( 'NONE', #39, #40, #138, .T. ) ;
#51 = ORIENTED_EDGE ( 'NONE', *, *, #150, .F. ) ;
#52 = ORIENTED_EDGE ( 'NONE', *, *, #10, .F. ) ;
#53 = ORIENTED_EDGE ( 'NONE', *, *, #81, .F. ) ;
#54 = ADVANCED_FACE ( 'NONE', ( #106 ), #122, .T. ) ;
#55 = ORIENTED_EDGE ( 'NONE', *, *, #69, .T. ) ;
#56 = ORIENTED_EDGE ( 'NONE', *, *, #59, .F. ) ;
#57 = EDGE_CURVE ( 'NONE', #39, #44, #98, .T. ) ;
#58 = VERTEX_POINT ( 'NONE', #121 ) ;
#59 = EDGE_CURVE ( 'NONE', #58, #44, #208, .T. ) ;
#60 = APPROVAL ( #61, 'UNSPECIFIED' ) ;
#61 = APPROVAL_STATUS ( 'not_yet_approved' ) ;
#62 = VECTOR ( 'NONE', #20, 1000.000000000000000 ) ;
#63 = ORIENTED_EDGE ( 'NONE', *, *, #64, .T. ) ;
#64 = EDGE_CURVE ( 'NONE', #68, #19, #112, .T. ) ;
#65 = ADVANCED_FACE ( 'NONE', ( #204 ), #99, .T. ) ;
#66 = ORIENTED_EDGE ( 'NONE', *, *, #69, .F. ) ;
#67 = ORIENTED_EDGE ( 'NONE', *, *, #18, .T. ) ;
#68 = VERTEX_POINT ( 'NONE', #172 ) ;
#69 = EDGE_CURVE ( 'NONE', #45, #31, #201, .T. ) ;
#70 = ORIENTED_EDGE ( 'NONE', *, *, #42, .F. ) ;
#71 = APPROVAL_DATE_TIME ( #72, #60 ) ;
#72 = DATE_AND_TIME ( #73, #74 ) ;
#73 = CALENDAR_DATE ( 2012, 28, 9 ) ;
#74 = LOCAL_TIME ( 12, 14, 58.00000000000000000, #77 ) ;
#75 = MANIFOLD_SOLID_BREP ( '24990-001-1-solid1', #189 ) ;
#76 = DIRECTION ( 'NONE',  ( 1.000000000000000000, 0.0000000000000000000, 0.0000000000000000000 ) ) ;
#77 = COORDINATED_UNIVERSAL_TIME_OFFSET ( 5, 0, .BEHIND. ) ;
#78 = APPROVAL_PERSON_ORGANIZATION ( #80, #60, #34 ) ;
#79 = EDGE_LOOP ( 'NONE', ( #63, #67, #15, #16 ) ) ;
#80 = PERSON_AND_ORGANIZATION ( #253, #268 ) ;
#81 = EDGE_CURVE ( 'NONE', #44, #31, #123, .T. ) ;
#82 = EDGE_CURVE ( 'NONE', #39, #23, #251, .T. ) ;
#83 = TOROIDAL_SURFACE ( 'NONE', #91, -0.007133824008213537900, 69.00999999999999100 ) ;
#84 = CARTESIAN_POINT ( 'NONE',  ( 12.69999999999999900, 0.0000000000000000000, -1.448578643762688000 ) ) ;
#85 = VECTOR ( 'NONE', #144, 1000.000000000000000 ) ;
#86 = CARTESIAN_POINT ( 'NONE',  ( 0.0000000000000000000, 0.0000000000000000000, -67.41999963127484800 ) ) ;
#87 = CARTESIAN_POINT ( 'NONE',  ( 0.0000000000000000000, 0.0000000000000000000, 0.2949196902558085000 ) ) ;
#88 = CIRCLE ( 'NONE', #154, 12.55857864376268800 ) ;
#89 = VECTOR ( 'NONE', #147, 1000.000000000000000 ) ;
#90 = FACE_OUTER_BOUND ( 'NONE', #13, .T. ) ;
#91 = AXIS2_PLACEMENT_3D ( 'NONE', #86, #149, #167 ) ;
#92 = DIRECTION ( 'NONE',  ( 1.000000000000000000, 0.0000000000000000000, 0.0000000000000000000 ) ) ;
#93 = LINE ( 'NONE', #148, #89 ) ;
#94 = CC_DESIGN_APPROVAL ( #60, ( #8 ) ) ;
#95 = CARTESIAN_POINT ( 'NONE',  ( 0.0000000000000000000, 0.0000000000000000000, -1.590000000000001200 ) ) ;
#96 = DIRECTION ( 'NONE',  ( -0.7071067811865431300, 0.0000000000000000000, -0.7071067811865519000 ) ) ;
#97 = VECTOR ( 'NONE', #96, 1000.000000000000000 ) ;
#98 = LINE ( 'NONE', #178, #97 ) ;
#99 = CONICAL_SURFACE ( 'NONE', #205, 12.55857864376268800, 0.7853981633974420600 ) ;
#100 = CIRCLE ( 'NONE', #126, 12.69999999999999900 ) ;
#101 = CARTESIAN_POINT ( 'NONE',  ( 0.0000000000000000000, 0.0000000000000000000, -1.590000000000001200 ) ) ;
#102 = CC_DESIGN_PERSON_AND_ORGANIZATION_ASSIGNMENT ( #170, #103, ( #8 ) ) ;
#103 = PERSON_AND_ORGANIZATION_ROLE ( 'creator' ) ;
#104 = TOROIDAL_SURFACE ( 'NONE', #177, -0.007133824008213537900, 69.00999999999999100 ) ;
#105 = CARTESIAN_POINT ( 'NONE',  ( 0.0000000000000000000, 0.0000000000000000000, 0.4363410464931216600 ) ) ;
#106 = FACE_OUTER_BOUND ( 'NONE', #14, .T. ) ;
#107 = DIRECTION ( 'NONE',  ( -0.0000000000000000000, -0.0000000000000000000, 1.000000000000000000 ) ) ;
#108 = CARTESIAN_POINT ( 'NONE',  ( -12.69999999999999900, 1.555301434917138400E-015, 35.72254576870004400 ) ) ;
#109 = DIRECTION ( 'NONE',  ( 1.000000000000000000, 0.0000000000000000000, 0.0000000000000000000 ) ) ;
#110 = DIRECTION ( 'NONE',  ( -0.0000000000000000000, -0.0000000000000000000, 1.000000000000000000 ) ) ;
#111 = AXIS2_PLACEMENT_3D ( 'NONE', #175, #110, #109 ) ;
#112 = CIRCLE ( 'NONE', #116, 12.55857864376268800 ) ;
#113 = DIRECTION ( 'NONE',  ( 1.000000000000000000, 0.0000000000000000000, 0.0000000000000000000 ) ) ;
#114 = AXIS2_PLACEMENT_3D ( 'NONE', #115, #120, #117 ) ;
#115 = CARTESIAN_POINT ( 'NONE',  ( 0.0000000000000000000, 0.0000000000000000000, 35.72254576870004400 ) ) ;
#116 = AXIS2_PLACEMENT_3D ( 'NONE', #200, #199, #198 ) ;
#117 = DIRECTION ( 'NONE',  ( 1.000000000000000000, 0.0000000000000000000, 0.0000000000000000000 ) ) ;
#118 = DIRECTION ( 'NONE',  ( 1.000000000000000000, 0.0000000000000000000, 0.0000000000000000000 ) ) ;
#119 = AXIS2_PLACEMENT_3D ( 'NONE', #105, #107, #118 ) ;
#120 = DIRECTION ( 'NONE',  ( -0.0000000000000000000, -0.0000000000000000000, 1.000000000000000000 ) ) ;
#121 = CARTESIAN_POINT ( 'NONE',  ( -12.69999999999999900, 1.555301434917138400E-015, -1.448578643762688000 ) ) ;
#122 = CYLINDRICAL_SURFACE ( 'NONE', #114, 12.69999999999999900 ) ;
#123 = CIRCLE ( 'NONE', #173, 12.69999999999999900 ) ;
#124 = CONICAL_SURFACE ( 'NONE', #131, 12.55857864376268800, 0.7853981633974420600 ) ;
#125 = DIRECTION ( 'NONE',  ( -0.0000000000000000000, -0.0000000000000000000, 1.000000000000000000 ) ) ;
#126 = AXIS2_PLACEMENT_3D ( 'NONE', #166, #125, #92 ) ;
#127 = DIRECTION ( 'NONE',  ( 0.7071067811865431300, 0.0000000000000000000, 0.7071067811865519000 ) ) ;
#128 = VECTOR ( 'NONE', #127, 1000.000000000000000 ) ;
#129 = CARTESIAN_POINT ( 'NONE',  ( 12.55857864376268800, 0.0000000000000000000, -1.590000000000001200 ) ) ;
#130 = LINE ( 'NONE', #129, #128 ) ;
#131 = AXIS2_PLACEMENT_3D ( 'NONE', #101, #146, #145 ) ;
#132 = CARTESIAN_POINT ( 'NONE',  ( -12.55857864376268800, 1.546641874354783400E-015, -1.590000000000001200 ) ) ;
#133 = CARTESIAN_POINT ( 'NONE',  ( 0.0000000000000000000, 0.0000000000000000000, 35.72254576870004400 ) ) ;
#134 = DIRECTION ( 'NONE',  ( -1.000000000000000000, 0.0000000000000000000, 0.0000000000000000000 ) ) ;
#135 = AXIS2_PLACEMENT_3D ( 'NONE', #142, #143, #134 ) ;
#136 = CARTESIAN_POINT ( 'NONE',  ( -12.55857864376263900, 1.537982313792422300E-015, 0.4363410464931216600 ) ) ;
#137 = CIRCLE ( 'NONE', #139, 12.69999999999999900 ) ;
#138 = CIRCLE ( 'NONE', #119, 12.55857864376268800 ) ;
#139 = AXIS2_PLACEMENT_3D ( 'NONE', #87, #186, #185 ) ;
#140 = DIRECTION ( 'NONE',  ( 1.000000000000000000, 0.0000000000000000000, 0.0000000000000000000 ) ) ;
#141 = AXIS2_PLACEMENT_3D ( 'NONE', #133, #184, #183 ) ;
#142 = CARTESIAN_POINT ( 'NONE',  ( 0.0000000000000000000, 0.0000000000000000000, 0.2949196902558085000 ) ) ;
#143 = DIRECTION ( 'NONE',  ( 0.0000000000000000000, 0.0000000000000000000, -1.000000000000000000 ) ) ;
#144 = DIRECTION ( 'NONE',  ( 0.7071067811865431300, 8.659560562354878600E-017, -0.7071067811865519000 ) ) ;
#145 = DIRECTION ( 'NONE',  ( 1.000000000000000000, 0.0000000000000000000, 0.0000000000000000000 ) ) ;
#146 = DIRECTION ( 'NONE',  ( -0.0000000000000000000, -0.0000000000000000000, 1.000000000000000000 ) ) ;
#147 = DIRECTION ( 'NONE',  ( -0.7071067811865431300, 8.659560562354878600E-017, 0.7071067811865519000 ) ) ;
#148 = CARTESIAN_POINT ( 'NONE',  ( -12.55857864376268800, 1.537982313792428500E-015, -1.590000000000001200 ) ) ;
#149 = DIRECTION ( 'NONE',  ( -0.0000000000000000000, -0.0000000000000000000, 1.000000000000000000 ) ) ;
#150 = EDGE_CURVE ( 'NONE', #19, #68, #212, .T. ) ;
#151 = EDGE_LOOP ( 'NONE', ( #193, #5, #192, #188 ) ) ;
#152 = CARTESIAN_POINT ( 'NONE',  ( 12.69999999999999900, 1.555301434917138400E-015, 0.2949196902558085000 ) ) ;
#153 = CARTESIAN_POINT ( 'NONE',  ( 12.55857864376263900, 0.0000000000000000000, 0.4363410464931216600 ) ) ;
#154 = AXIS2_PLACEMENT_3D ( 'NONE', #162, #157, #140 ) ;
#155 = FACE_OUTER_BOUND ( 'NONE', #32, .T. ) ;
#156 = CONICAL_SURFACE ( 'NONE', #135, 12.69999999999999900, 0.7853981633974420600 ) ;
#157 = DIRECTION ( 'NONE',  ( -0.0000000000000000000, -0.0000000000000000000, 1.000000000000000000 ) ) ;
#158 = DIRECTION ( 'NONE',  ( 0.0000000000000000000, 0.0000000000000000000, -1.000000000000000000 ) ) ;
#159 = DIRECTION ( 'NONE',  ( 0.0000000000000000000, -1.000000000000000000, 0.0000000000000000000 ) ) ;
#160 = CARTESIAN_POINT ( 'NONE',  ( -0.007133824008213537900, 0.0000000000000000000, -67.41999963127484800 ) ) ;
#161 = AXIS2_PLACEMENT_3D ( 'NONE', #160, #159, #158 ) ;
#162 = CARTESIAN_POINT ( 'NONE',  ( 0.0000000000000000000, 0.0000000000000000000, 0.4363410464931216600 ) ) ;
#163 = CIRCLE ( 'NONE', #161, 69.00999999999999100 ) ;
#164 = LINE ( 'NONE', #152, #85 ) ;
#165 = CARTESIAN_POINT ( 'NONE',  ( 12.69999999999999900, 0.0000000000000000000, 0.2949196902558085000 ) ) ;
#166 = CARTESIAN_POINT ( 'NONE',  ( 0.0000000000000000000, 0.0000000000000000000, -1.448578643762688000 ) ) ;
#167 = DIRECTION ( 'NONE',  ( 1.000000000000000000, 0.0000000000000000000, 0.0000000000000000000 ) ) ;
#168 = CARTESIAN_POINT ( 'NONE',  ( 0.0000000000000000000, 0.0000000000000000000, 1.590000000000000100 ) ) ;
#169 = CARTESIAN_POINT ( 'NONE',  ( 12.69999999999999900, 0.0000000000000000000, 35.72254576870004400 ) ) ;
#170 = PERSON_AND_ORGANIZATION ( #253, #268 ) ;
#171 = DIRECTION ( 'NONE',  ( -0.0000000000000000000, -0.0000000000000000000, 1.000000000000000000 ) ) ;
#172 = CARTESIAN_POINT ( 'NONE',  ( 12.55857864376268800, 0.0000000000000000000, -1.590000000000001200 ) ) ;
#173 = AXIS2_PLACEMENT_3D ( 'NONE', #197, #171, #76 ) ;
#174 = CYLINDRICAL_SURFACE ( 'NONE', #141, 12.69999999999999900 ) ;
#175 = CARTESIAN_POINT ( 'NONE',  ( 0.0000000000000000000, 0.0000000000000000000, -1.448578643762688000 ) ) ;
#176 = FACE_OUTER_BOUND ( 'NONE', #17, .T. ) ;
#177 = AXIS2_PLACEMENT_3D ( 'NONE', #180, #179, #113 ) ;
#178 = CARTESIAN_POINT ( 'NONE',  ( -12.69999999999999900, 0.0000000000000000000, 0.2949196902558085000 ) ) ;
#179 = DIRECTION ( 'NONE',  ( -0.0000000000000000000, -0.0000000000000000000, 1.000000000000000000 ) ) ;
#180 = CARTESIAN_POINT ( 'NONE',  ( 0.0000000000000000000, 0.0000000000000000000, -67.41999963127484800 ) ) ;
#181 = FACE_OUTER_BOUND ( 'NONE', #35, .T. ) ;
#182 = CIRCLE ( 'NONE', #111, 12.69999999999999900 ) ;
#183 = DIRECTION ( 'NONE',  ( 1.000000000000000000, 0.0000000000000000000, 0.0000000000000000000 ) ) ;
#184 = DIRECTION ( 'NONE',  ( -0.0000000000000000000, -0.0000000000000000000, 1.000000000000000000 ) ) ;
#185 = DIRECTION ( 'NONE',  ( 1.000000000000000000, 0.0000000000000000000, 0.0000000000000000000 ) ) ;
#186 = DIRECTION ( 'NONE',  ( -0.0000000000000000000, -0.0000000000000000000, 1.000000000000000000 ) ) ;
#187 = CARTESIAN_POINT ( 'NONE',  ( -12.69999999999999900, 1.555301434917138400E-015, 0.2949196902558085000 ) ) ;
#188 = ORIENTED_EDGE ( 'NONE', *, *, #81, .T. ) ;
#189 = CLOSED_SHELL ( 'NONE', ( #38, #46, #65, #21, #49, #194, #7, #54, #191 ) ) ;
#190 = FACE_OUTER_BOUND ( 'NONE', #3, .T. ) ;
#191 = ADVANCED_FACE ( 'NONE', ( #248 ), #270, .T. ) ;
#192 = ORIENTED_EDGE ( 'NONE', *, *, #57, .T. ) ;
#193 = ORIENTED_EDGE ( 'NONE', *, *, #36, .F. ) ;
#194 = ADVANCED_FACE ( 'NONE', ( #222 ), #250, .F. ) ;
#195 = ORIENTED_EDGE ( 'NONE', *, *, #25, .T. ) ;
#196 = ORIENTED_EDGE ( 'NONE', *, *, #150, .T. ) ;
#197 = CARTESIAN_POINT ( 'NONE',  ( 0.0000000000000000000, 0.0000000000000000000, 0.2949196902558085000 ) ) ;
#198 = DIRECTION ( 'NONE',  ( 1.000000000000000000, 0.0000000000000000000, 0.0000000000000000000 ) ) ;
#199 = DIRECTION ( 'NONE',  ( -0.0000000000000000000, -0.0000000000000000000, 1.000000000000000000 ) ) ;
#200 = CARTESIAN_POINT ( 'NONE',  ( 0.0000000000000000000, 0.0000000000000000000, -1.590000000000001200 ) ) ;
#201 = LINE ( 'NONE', #169, #62 ) ;
#202 = DIRECTION ( 'NONE',  ( 1.000000000000000000, 0.0000000000000000000, 0.0000000000000000000 ) ) ;
#203 = DIRECTION ( 'NONE',  ( -0.0000000000000000000, -0.0000000000000000000, 1.000000000000000000 ) ) ;
#204 = FACE_OUTER_BOUND ( 'NONE', #79, .T. ) ;
#205 = AXIS2_PLACEMENT_3D ( 'NONE', #95, #203, #202 ) ;
#206 = DIRECTION ( 'NONE',  ( -0.0000000000000000000, -0.0000000000000000000, 1.000000000000000000 ) ) ;
#207 = VECTOR ( 'NONE', #206, 1000.000000000000000 ) ;
#208 = LINE ( 'NONE', #108, #207 ) ;
#209 = DIRECTION ( 'NONE',  ( 1.000000000000000000, 0.0000000000000000000, 0.0000000000000000000 ) ) ;
#210 = APPLICATION_PROTOCOL_DEFINITION ( 'international standard', 'config_control_design', 1994, #271 ) ;
#211 = ADVANCED_BREP_SHAPE_REPRESENTATION ( '24990-E0W', ( #75, #218 ), #228 ) ;
#212 = CIRCLE ( 'NONE', #216, 12.55857864376268800 ) ;
#213 = DIRECTION ( 'NONE',  ( 0.0000000000000000000, -0.0000000000000000000, 1.000000000000000000 ) ) ;
#214 = CARTESIAN_POINT ( 'NONE',  ( 0.0000000000000000000, 0.0000000000000000000, -1.590000000000000100 ) ) ;
#215 = DIRECTION ( 'NONE',  ( 1.000000000000000000, 0.0000000000000000000, 0.0000000000000000000 ) ) ;
#216 = AXIS2_PLACEMENT_3D ( 'NONE', #269, #217, #215 ) ;
#217 = DIRECTION ( 'NONE',  ( -0.0000000000000000000, -0.0000000000000000000, 1.000000000000000000 ) ) ;
#218 = AXIS2_PLACEMENT_3D ( 'NONE', #221, #272, #209 ) ;
#219 =( NAMED_UNIT ( * ) SI_UNIT ( $, .STERADIAN. ) SOLID_ANGLE_UNIT ( ) );
#220 = DIRECTION ( 'NONE',  ( 1.000000000000000000, 0.0000000000000000000, 0.0000000000000000000 ) ) ;
#221 = CARTESIAN_POINT ( 'NONE',  ( 0.0000000000000000000, 0.0000000000000000000, 0.0000000000000000000 ) ) ;
#222 = FACE_OUTER_BOUND ( 'NONE', #26, .T. ) ;
#223 = DIRECTION ( 'NONE',  ( -1.000000000000000000, 0.0000000000000000000, 0.0000000000000000000 ) ) ;
#224 = DIRECTION ( 'NONE',  ( 0.0000000000000000000, 0.0000000000000000000, -1.000000000000000000 ) ) ;
#225 = AXIS2_PLACEMENT_3D ( 'NONE', #249, #224, #223 ) ;
#226 = AXIS2_PLACEMENT_3D ( 'NONE', #227, #256, #273 ) ;
#227 = CARTESIAN_POINT ( 'NONE',  ( 0.007133824008213537900, -8.736414737339250200E-019, -67.41999963127484800 ) ) ;
#228 =( GEOMETRIC_REPRESENTATION_CONTEXT ( 3 ) GLOBAL_UNCERTAINTY_ASSIGNED_CONTEXT ( ( #229 ) ) GLOBAL_UNIT_ASSIGNED_CONTEXT ( ( #230, #252, #219 ) ) REPRESENTATION_CONTEXT ( 'NONE', 'WORKASPACE' ) );
#229 = UNCERTAINTY_MEASURE_WITH_UNIT (LENGTH_MEASURE( 1.000000000000000100E-005 ), #230, 'distance_accuracy_value', 'NONE');
#230 =( LENGTH_UNIT ( ) NAMED_UNIT ( * ) SI_UNIT ( .MILLI., .METRE. ) );
#231 = CC_DESIGN_DATE_AND_TIME_ASSIGNMENT ( #233, #232, ( #261 ) ) ;
#232 = DATE_TIME_ROLE ( 'creation_date' ) ;
#233 = DATE_AND_TIME ( #234, #235 ) ;
#234 = CALENDAR_DATE ( 2012, 28, 9 ) ;
#235 = LOCAL_TIME ( 12, 14, 58.00000000000000000, #236 ) ;
#236 = COORDINATED_UNIVERSAL_TIME_OFFSET ( 5, 0, .BEHIND. ) ;
#237 = CC_DESIGN_PERSON_AND_ORGANIZATION_ASSIGNMENT ( #239, #238, ( #261 ) ) ;
#238 = PERSON_AND_ORGANIZATION_ROLE ( 'creator' ) ;
#239 = PERSON_AND_ORGANIZATION ( #253, #268 ) ;
#240 = CC_DESIGN_APPROVAL ( #258, ( #261 ) ) ;
#241 = APPROVAL_DATE_TIME ( #242, #258 ) ;
#242 = DATE_AND_TIME ( #243, #244 ) ;
#243 = CALENDAR_DATE ( 2012, 28, 9 ) ;
#244 = LOCAL_TIME ( 12, 14, 58.00000000000000000, #245 ) ;
#245 = COORDINATED_UNIVERSAL_TIME_OFFSET ( 5, 0, .BEHIND. ) ;
#246 = APPROVAL_PERSON_ORGANIZATION ( #260, #258, #247 ) ;
#247 = APPROVAL_ROLE ( '' ) ;
#248 = FACE_OUTER_BOUND ( 'NONE', #151, .T. ) ;
#249 = CARTESIAN_POINT ( 'NONE',  ( 0.0000000000000000000, 0.0000000000000000000, 0.2949196902558085000 ) ) ;
#250 = PLANE ( 'NONE',  #257 ) ;
#251 = CIRCLE ( 'NONE', #226, 69.00999999999999100 ) ;
#252 =( NAMED_UNIT ( * ) PLANE_ANGLE_UNIT ( ) SI_UNIT ( $, .RADIAN. ) );
#253 = PERSON ( 'UNSPECIFIED', 'UNSPECIFIED', 'UNSPECIFIED', ('UNSPECIFIED'), ('UNSPECIFIED'), ('UNSPECIFIED') ) ;
#254 = PRODUCT ( '24990-E0W', '24990-E0W', '', ( #255 ) ) ;
#255 = MECHANICAL_CONTEXT ( 'NONE', #271, 'mechanical' ) ;
#256 = DIRECTION ( 'NONE',  ( 1.224646799147353200E-016, 1.000000000000000000, 0.0000000000000000000 ) ) ;
#257 = AXIS2_PLACEMENT_3D ( 'NONE', #214, #213, #220 ) ;
#258 = APPROVAL ( #259, 'UNSPECIFIED' ) ;
#259 = APPROVAL_STATUS ( 'not_yet_approved' ) ;
#260 = PERSON_AND_ORGANIZATION ( #253, #268 ) ;
#261 = PRODUCT_DEFINITION ( 'UNKNOWN', '', #8, #262 ) ;
#262 = DESIGN_CONTEXT ( 'detailed design', #264, 'design' ) ;
#263 = APPLICATION_PROTOCOL_DEFINITION ( 'international standard', 'config_control_design', 1994, #264 ) ;
#264 = APPLICATION_CONTEXT ( 'configuration controlled 3d designs of mechanical parts and assemblies' ) ;
#265 = CC_DESIGN_PERSON_AND_ORGANIZATION_ASSIGNMENT ( #267, #266, ( #254 ) ) ;
#266 = PERSON_AND_ORGANIZATION_ROLE ( 'design_owner' ) ;
#267 = PERSON_AND_ORGANIZATION ( #253, #268 ) ;
#268 = ORGANIZATION ( 'UNSPECIFIED', 'UNSPECIFIED', '' ) ;
#269 = CARTESIAN_POINT ( 'NONE',  ( 0.0000000000000000000, 0.0000000000000000000, -1.590000000000001200 ) ) ;
#270 = CONICAL_SURFACE ( 'NONE', #225, 12.69999999999999900, 0.7853981633974420600 ) ;
#271 = APPLICATION_CONTEXT ( 'configuration controlled 3d designs of mechanical parts and assemblies' ) ;
#272 = DIRECTION ( 'NONE',  ( 0.0000000000000000000, 0.0000000000000000000, 1.000000000000000000 ) ) ;
#273 = DIRECTION ( 'NONE',  ( -1.000000000000000000, 1.224646799147353200E-016, 0.0000000000000000000 ) ) ;
#274 = DATE_AND_TIME ( #275, #276 ) ;
#275 = CALENDAR_DATE ( 2012, 28, 9 ) ;
#276 = LOCAL_TIME ( 12, 14, 58.00000000000000000, #291 ) ;
#277 = APPROVAL_ROLE ( '' ) ;
#278 = APPROVAL ( #279, 'UNSPECIFIED' ) ;
#279 = APPROVAL_STATUS ( 'not_yet_approved' ) ;
#280 = CC_DESIGN_SECURITY_CLASSIFICATION ( #290, ( #8 ) ) ;
#281 = CC_DESIGN_APPROVAL ( #278, ( #290 ) ) ;
#282 = APPROVAL_DATE_TIME ( #283, #278 ) ;
#283 = DATE_AND_TIME ( #284, #285 ) ;
#284 = CALENDAR_DATE ( 2012, 28, 9 ) ;
#285 = LOCAL_TIME ( 12, 14, 58.00000000000000000, #286 ) ;
#286 = COORDINATED_UNIVERSAL_TIME_OFFSET ( 5, 0, .BEHIND. ) ;
#287 = APPROVAL_PERSON_ORGANIZATION ( #293, #278, #277 ) ;
#288 = CC_DESIGN_PERSON_AND_ORGANIZATION_ASSIGNMENT ( #289, #292, ( #290 ) ) ;
#289 = PERSON_AND_ORGANIZATION ( #253, #268 ) ;
#290 = SECURITY_CLASSIFICATION ( '', '', #299 ) ;
#291 = COORDINATED_UNIVERSAL_TIME_OFFSET ( 5, 0, .BEHIND. ) ;
#292 = PERSON_AND_ORGANIZATION_ROLE ( 'classification_officer' ) ;
#293 = PERSON_AND_ORGANIZATION ( #253, #268 ) ;
#294 = CC_DESIGN_DATE_AND_TIME_ASSIGNMENT ( #274, #295, ( #290 ) ) ;
#295 = DATE_TIME_ROLE ( 'classification_date' ) ;
#296 = PERSON_AND_ORGANIZATION ( #253, #268 ) ;
#297 = PERSON_AND_ORGANIZATION_ROLE ( 'design_supplier' ) ;
#298 = CC_DESIGN_PERSON_AND_ORGANIZATION_ASSIGNMENT ( #296, #297, ( #8 ) ) ;
#299 = SECURITY_CLASSIFICATION_LEVEL ( 'unclassified' ) ;
#300 = PRODUCT_DEFINITION_SHAPE ( 'NONE', 'NONE',  #261 ) ;
#301 = PRODUCT_RELATED_PRODUCT_CATEGORY ( 'detail', '', ( #254 ) ) ;
ENDSEC;
END-ISO-10303-21;
