ISO-10303-21;
HEADER;
FILE_DESCRIPTION (( 'STEP AP203' ),
    '1' );
FILE_NAME ('Web Model 48414_48419.step',
    '2017-04-10T16:49:39',
    ( '' ),
    ( '' ),
    'SwSTEP 2.0',
    'SolidWorks 2016',
    '' );
FILE_SCHEMA (( 'CONFIG_CONTROL_DESIGN' ));
ENDSEC;

DATA;
#1 = CYLINDRICAL_SURFACE ( 'NONE', #130, 37.50000000000000700 ) ;
#2 = PERSON_AND_ORGANIZATION ( #125, #65 ) ;
#3 = COORDINATED_UNIVERSAL_TIME_OFFSET ( 5, 0, .BEHIND. ) ;
#4 = APPROVAL_PERSON_ORGANIZATION ( #85, #38, #161 ) ;
#5 = APPROVAL_STATUS ( 'not_yet_approved' ) ;
#6 = EDGE_LOOP ( 'NONE', ( #74, #127, #46, #115 ) ) ;
#7 = CC_DESIGN_PERSON_AND_ORGANIZATION_ASSIGNMENT ( #57, #24, ( #10 ) ) ;
#8 = CLOSED_SHELL ( 'NONE', ( #160, #116, #159, #83 ) ) ;
#9 = CARTESIAN_POINT ( 'NONE',  ( 37.50000000000000700, 4.592425496802575200E-015, 3.000000000000000000 ) ) ;
#10 = SECURITY_CLASSIFICATION ( '', '', #89 ) ;
#11 = APPROVAL_ROLE ( '' ) ;
#12 = ORIENTED_EDGE ( 'NONE', *, *, #95, .T. ) ;
#13 = CC_DESIGN_PERSON_AND_ORGANIZATION_ASSIGNMENT ( #2, #112, ( #41 ) ) ;
#14 = CC_DESIGN_PERSON_AND_ORGANIZATION_ASSIGNMENT ( #28, #133, ( #41 ) ) ;
#15 = DATE_AND_TIME ( #171, #166 ) ;
#16 = CALENDAR_DATE ( 2017, 10, 4 ) ;
#17 = CALENDAR_DATE ( 2017, 10, 4 ) ;
#18 = CC_DESIGN_APPROVAL ( #38, ( #41 ) ) ;
#19 = APPROVAL_DATE_TIME ( #15, #59 ) ;
#20 = APPROVAL_DATE_TIME ( #40, #111 ) ;
#21 = DIRECTION ( 'NONE',  ( 1.000000000000000000, 0.0000000000000000000, 0.0000000000000000000 ) ) ;
#22 = APPROVAL_PERSON_ORGANIZATION ( #37, #59, #11 ) ;
#23 = DIRECTION ( 'NONE',  ( 0.0000000000000000000, 0.0000000000000000000, 1.000000000000000000 ) ) ;
#24 = PERSON_AND_ORGANIZATION_ROLE ( 'classification_officer' ) ;
#25 = PERSON_AND_ORGANIZATION ( #125, #65 ) ;
#26 = DATE_TIME_ROLE ( 'creation_date' ) ;
#27 = CC_DESIGN_SECURITY_CLASSIFICATION ( #10, ( #41 ) ) ;
#28 = PERSON_AND_ORGANIZATION ( #125, #65 ) ;
#29 = DESIGN_CONTEXT ( 'detailed design', #36, 'design' ) ;
#30 = PERSON_AND_ORGANIZATION_ROLE ( 'design_owner' ) ;
#31 = CARTESIAN_POINT ( 'NONE',  ( 0.0000000000000000000, 0.0000000000000000000, 0.0000000000000000000 ) ) ;
#32 = AXIS2_PLACEMENT_3D ( 'NONE', #70, #109, #35 ) ;
#33 = LOCAL_TIME ( 12, 49, 39.00000000000000000, #163 ) ;
#34 = DIRECTION ( 'NONE',  ( 0.0000000000000000000, 0.0000000000000000000, 1.000000000000000000 ) ) ;
#35 = DIRECTION ( 'NONE',  ( 1.000000000000000000, 0.0000000000000000000, 0.0000000000000000000 ) ) ;
#36 = APPLICATION_CONTEXT ( 'configuration controlled 3d designs of mechanical parts and assemblies' ) ;
#37 = PERSON_AND_ORGANIZATION ( #125, #65 ) ;
#38 = APPROVAL ( #82, 'UNSPECIFIED' ) ;
#39 = DIRECTION ( 'NONE',  ( 1.000000000000000000, 0.0000000000000000000, -0.0000000000000000000 ) ) ;
#40 = DATE_AND_TIME ( #16, #44 ) ;
#41 = PRODUCT_DEFINITION_FORMATION_WITH_SPECIFIED_SOURCE ( 'ANY', '', #173, .NOT_KNOWN. ) ;
#42 = CC_DESIGN_DATE_AND_TIME_ASSIGNMENT ( #145, #26, ( #63 ) ) ;
#43 = PERSON_AND_ORGANIZATION ( #125, #65 ) ;
#44 = LOCAL_TIME ( 12, 49, 39.00000000000000000, #3 ) ;
#45 = APPROVAL_PERSON_ORGANIZATION ( #25, #111, #87 ) ;
#46 = ORIENTED_EDGE ( 'NONE', *, *, #172, .T. ) ;
#47 = FACE_OUTER_BOUND ( 'NONE', #143, .T. ) ;
#48 = CARTESIAN_POINT ( 'NONE',  ( 0.0000000000000000000, 0.0000000000000000000, 3.000000000000000000 ) ) ;
#49 = UNCERTAINTY_MEASURE_WITH_UNIT (LENGTH_MEASURE( 1.000000000000000100E-005 ), #56, 'distance_accuracy_value', 'NONE');
#50 = ORIENTED_EDGE ( 'NONE', *, *, #151, .T. ) ;
#51 = CYLINDRICAL_SURFACE ( 'NONE', #96, 37.50000000000000700 ) ;
#52 = CC_DESIGN_PERSON_AND_ORGANIZATION_ASSIGNMENT ( #43, #67, ( #63 ) ) ;
#53 = DIRECTION ( 'NONE',  ( -0.0000000000000000000, -0.0000000000000000000, -1.000000000000000000 ) ) ;
#54 = APPROVAL_STATUS ( 'not_yet_approved' ) ;
#55 = CC_DESIGN_APPROVAL ( #59, ( #63 ) ) ;
#56 =( LENGTH_UNIT ( ) NAMED_UNIT ( * ) SI_UNIT ( .MILLI., .METRE. ) );
#57 = PERSON_AND_ORGANIZATION ( #125, #65 ) ;
#58 = ORIENTED_EDGE ( 'NONE', *, *, #147, .F. ) ;
#59 = APPROVAL ( #54, 'UNSPECIFIED' ) ;
#60 = VERTEX_POINT ( 'NONE', #131 ) ;
#61 = DIRECTION ( 'NONE',  ( 1.000000000000000000, 0.0000000000000000000, -0.0000000000000000000 ) ) ;
#62 = SHAPE_DEFINITION_REPRESENTATION ( #165, #64 ) ;
#63 = PRODUCT_DEFINITION ( 'UNKNOWN', '', #41, #29 ) ;
#64 = ADVANCED_BREP_SHAPE_REPRESENTATION ( 'Web Model 48414_48419', ( #150, #80 ), #97 ) ;
#65 = ORGANIZATION ( 'UNSPECIFIED', 'UNSPECIFIED', '' ) ;
#66 = CC_DESIGN_PERSON_AND_ORGANIZATION_ASSIGNMENT ( #106, #30, ( #173 ) ) ;
#67 = PERSON_AND_ORGANIZATION_ROLE ( 'creator' ) ;
#68 = DIRECTION ( 'NONE',  ( 0.0000000000000000000, 0.0000000000000000000, 1.000000000000000000 ) ) ;
#69 = CC_DESIGN_DATE_AND_TIME_ASSIGNMENT ( #158, #84, ( #10 ) ) ;
#70 = CARTESIAN_POINT ( 'NONE',  ( 0.0000000000000000000, 0.0000000000000000000, 0.0000000000000000000 ) ) ;
#71 = VECTOR ( 'NONE', #123, 1000.000000000000000 ) ;
#72 = LINE ( 'NONE', #75, #71 ) ;
#73 = FACE_OUTER_BOUND ( 'NONE', #98, .T. ) ;
#74 = ORIENTED_EDGE ( 'NONE', *, *, #95, .F. ) ;
#75 = CARTESIAN_POINT ( 'NONE',  ( -37.50000000000000700, 0.0000000000000000000, 3.000000000000000000 ) ) ;
#76 = COORDINATED_UNIVERSAL_TIME_OFFSET ( 5, 0, .BEHIND. ) ;
#77 = CARTESIAN_POINT ( 'NONE',  ( 0.0000000000000000000, 0.0000000000000000000, 0.0000000000000000000 ) ) ;
#78 = PLANE ( 'NONE',  #101 ) ;
#79 = PRODUCT_RELATED_PRODUCT_CATEGORY ( 'detail', '', ( #173 ) ) ;
#80 = AXIS2_PLACEMENT_3D ( 'NONE', #31, #154, #124 ) ;
#81 = APPLICATION_CONTEXT ( 'configuration controlled 3d designs of mechanical parts and assemblies' ) ;
#82 = APPROVAL_STATUS ( 'not_yet_approved' ) ;
#83 = ADVANCED_FACE ( 'NONE', ( #47 ), #153, .F. ) ;
#84 = DATE_TIME_ROLE ( 'classification_date' ) ;
#85 = PERSON_AND_ORGANIZATION ( #125, #65 ) ;
#86 = DIRECTION ( 'NONE',  ( 1.000000000000000000, 0.0000000000000000000, 0.0000000000000000000 ) ) ;
#87 = APPROVAL_ROLE ( '' ) ;
#88 = CARTESIAN_POINT ( 'NONE',  ( 37.50000000000000700, 4.592425496802575200E-015, 0.0000000000000000000 ) ) ;
#89 = SECURITY_CLASSIFICATION_LEVEL ( 'unclassified' ) ;
#90 = DIRECTION ( 'NONE',  ( -1.000000000000000000, 0.0000000000000000000, 0.0000000000000000000 ) ) ;
#91 = APPLICATION_PROTOCOL_DEFINITION ( 'international standard', 'config_control_design', 1994, #81 ) ;
#92 = DIRECTION ( 'NONE',  ( 1.000000000000000000, 0.0000000000000000000, 0.0000000000000000000 ) ) ;
#93 = VECTOR ( 'NONE', #134, 1000.000000000000000 ) ;
#94 = MECHANICAL_CONTEXT ( 'NONE', #81, 'mechanical' ) ;
#95 = EDGE_CURVE ( 'NONE', #142, #146, #139, .T. ) ;
#96 = AXIS2_PLACEMENT_3D ( 'NONE', #117, #53, #128 ) ;
#97 =( GEOMETRIC_REPRESENTATION_CONTEXT ( 3 ) GLOBAL_UNCERTAINTY_ASSIGNED_CONTEXT ( ( #49 ) ) GLOBAL_UNIT_ASSIGNED_CONTEXT ( ( #56, #132, #105 ) ) REPRESENTATION_CONTEXT ( 'NONE', 'WORKASPACE' ) );
#98 = EDGE_LOOP ( 'NONE', ( #100, #50 ) ) ;
#99 = CIRCLE ( 'NONE', #122, 37.50000000000000700 ) ;
#100 = ORIENTED_EDGE ( 'NONE', *, *, #129, .T. ) ;
#101 = AXIS2_PLACEMENT_3D ( 'NONE', #118, #148, #61 ) ;
#102 = CIRCLE ( 'NONE', #126, 37.50000000000000700 ) ;
#103 = EDGE_LOOP ( 'NONE', ( #137, #12, #175, #136 ) ) ;
#104 = CARTESIAN_POINT ( 'NONE',  ( -37.50000000000000700, 0.0000000000000000000, 3.000000000000000000 ) ) ;
#105 =( NAMED_UNIT ( * ) SI_UNIT ( $, .STERADIAN. ) SOLID_ANGLE_UNIT ( ) );
#106 = PERSON_AND_ORGANIZATION ( #125, #65 ) ;
#107 = AXIS2_PLACEMENT_3D ( 'NONE', #135, #23, #39 ) ;
#108 = CARTESIAN_POINT ( 'NONE',  ( 0.0000000000000000000, 0.0000000000000000000, 3.000000000000000000 ) ) ;
#109 = DIRECTION ( 'NONE',  ( 0.0000000000000000000, 0.0000000000000000000, 1.000000000000000000 ) ) ;
#110 = APPLICATION_PROTOCOL_DEFINITION ( 'international standard', 'config_control_design', 1994, #36 ) ;
#111 = APPROVAL ( #5, 'UNSPECIFIED' ) ;
#112 = PERSON_AND_ORGANIZATION_ROLE ( 'design_supplier' ) ;
#113 = CARTESIAN_POINT ( 'NONE',  ( 37.50000000000000700, 4.592425496802575200E-015, 3.000000000000000000 ) ) ;
#114 = CIRCLE ( 'NONE', #32, 37.50000000000000700 ) ;
#115 = ORIENTED_EDGE ( 'NONE', *, *, #147, .T. ) ;
#116 = ADVANCED_FACE ( 'NONE', ( #169 ), #1, .T. ) ;
#117 = CARTESIAN_POINT ( 'NONE',  ( 0.0000000000000000000, 0.0000000000000000000, 3.000000000000000000 ) ) ;
#118 = CARTESIAN_POINT ( 'NONE',  ( 0.0000000000000000000, 0.0000000000000000000, 3.000000000000000000 ) ) ;
#119 = COORDINATED_UNIVERSAL_TIME_OFFSET ( 5, 0, .BEHIND. ) ;
#120 = DIRECTION ( 'NONE',  ( 0.0000000000000000000, 0.0000000000000000000, 1.000000000000000000 ) ) ;
#121 = VERTEX_POINT ( 'NONE', #104 ) ;
#122 = AXIS2_PLACEMENT_3D ( 'NONE', #108, #68, #92 ) ;
#123 = DIRECTION ( 'NONE',  ( -0.0000000000000000000, -0.0000000000000000000, -1.000000000000000000 ) ) ;
#124 = DIRECTION ( 'NONE',  ( 1.000000000000000000, 0.0000000000000000000, 0.0000000000000000000 ) ) ;
#125 = PERSON ( 'UNSPECIFIED', 'UNSPECIFIED', 'UNSPECIFIED', ('UNSPECIFIED'), ('UNSPECIFIED'), ('UNSPECIFIED') ) ;
#126 = AXIS2_PLACEMENT_3D ( 'NONE', #77, #34, #86 ) ;
#127 = ORIENTED_EDGE ( 'NONE', *, *, #129, .F. ) ;
#128 = DIRECTION ( 'NONE',  ( -1.000000000000000000, 0.0000000000000000000, 0.0000000000000000000 ) ) ;
#129 = EDGE_CURVE ( 'NONE', #121, #142, #167, .T. ) ;
#130 = AXIS2_PLACEMENT_3D ( 'NONE', #149, #162, #90 ) ;
#131 = CARTESIAN_POINT ( 'NONE',  ( -37.50000000000000700, 0.0000000000000000000, 0.0000000000000000000 ) ) ;
#132 =( NAMED_UNIT ( * ) PLANE_ANGLE_UNIT ( ) SI_UNIT ( $, .RADIAN. ) );
#133 = PERSON_AND_ORGANIZATION_ROLE ( 'creator' ) ;
#134 = DIRECTION ( 'NONE',  ( -0.0000000000000000000, -0.0000000000000000000, -1.000000000000000000 ) ) ;
#135 = CARTESIAN_POINT ( 'NONE',  ( 0.0000000000000000000, 0.0000000000000000000, 0.0000000000000000000 ) ) ;
#136 = ORIENTED_EDGE ( 'NONE', *, *, #172, .F. ) ;
#137 = ORIENTED_EDGE ( 'NONE', *, *, #151, .F. ) ;
#138 = EDGE_CURVE ( 'NONE', #146, #60, #114, .T. ) ;
#139 = LINE ( 'NONE', #113, #93 ) ;
#140 = FACE_OUTER_BOUND ( 'NONE', #103, .T. ) ;
#141 = AXIS2_PLACEMENT_3D ( 'NONE', #48, #120, #21 ) ;
#142 = VERTEX_POINT ( 'NONE', #9 ) ;
#143 = EDGE_LOOP ( 'NONE', ( #58, #156 ) ) ;
#144 = CC_DESIGN_APPROVAL ( #111, ( #10 ) ) ;
#145 = DATE_AND_TIME ( #155, #33 ) ;
#146 = VERTEX_POINT ( 'NONE', #88 ) ;
#147 = EDGE_CURVE ( 'NONE', #60, #146, #102, .T. ) ;
#148 = DIRECTION ( 'NONE',  ( 0.0000000000000000000, 0.0000000000000000000, 1.000000000000000000 ) ) ;
#149 = CARTESIAN_POINT ( 'NONE',  ( 0.0000000000000000000, 0.0000000000000000000, 3.000000000000000000 ) ) ;
#150 = MANIFOLD_SOLID_BREP ( 'Extrude1', #8 ) ;
#151 = EDGE_CURVE ( 'NONE', #142, #121, #99, .T. ) ;
#152 = DATE_AND_TIME ( #17, #168 ) ;
#153 = PLANE ( 'NONE',  #107 ) ;
#154 = DIRECTION ( 'NONE',  ( 0.0000000000000000000, 0.0000000000000000000, 1.000000000000000000 ) ) ;
#155 = CALENDAR_DATE ( 2017, 10, 4 ) ;
#156 = ORIENTED_EDGE ( 'NONE', *, *, #138, .F. ) ;
#157 = APPROVAL_DATE_TIME ( #152, #38 ) ;
#158 = DATE_AND_TIME ( #164, #174 ) ;
#159 = ADVANCED_FACE ( 'NONE', ( #73 ), #78, .T. ) ;
#160 = ADVANCED_FACE ( 'NONE', ( #140 ), #51, .T. ) ;
#161 = APPROVAL_ROLE ( '' ) ;
#162 = DIRECTION ( 'NONE',  ( -0.0000000000000000000, -0.0000000000000000000, -1.000000000000000000 ) ) ;
#163 = COORDINATED_UNIVERSAL_TIME_OFFSET ( 5, 0, .BEHIND. ) ;
#164 = CALENDAR_DATE ( 2017, 10, 4 ) ;
#165 = PRODUCT_DEFINITION_SHAPE ( 'NONE', 'NONE',  #63 ) ;
#166 = LOCAL_TIME ( 12, 49, 39.00000000000000000, #76 ) ;
#167 = CIRCLE ( 'NONE', #141, 37.50000000000000700 ) ;
#168 = LOCAL_TIME ( 12, 49, 39.00000000000000000, #119 ) ;
#169 = FACE_OUTER_BOUND ( 'NONE', #6, .T. ) ;
#170 = COORDINATED_UNIVERSAL_TIME_OFFSET ( 5, 0, .BEHIND. ) ;
#171 = CALENDAR_DATE ( 2017, 10, 4 ) ;
#172 = EDGE_CURVE ( 'NONE', #121, #60, #72, .T. ) ;
#173 = PRODUCT ( 'Web Model 48414_48419', 'Web Model 48414_48419', '', ( #94 ) ) ;
#174 = LOCAL_TIME ( 12, 49, 39.00000000000000000, #170 ) ;
#175 = ORIENTED_EDGE ( 'NONE', *, *, #138, .T. ) ;
ENDSEC;
END-ISO-10303-21;
