ISO-10303-21;
HEADER;
FILE_DESCRIPTION (( 'STEP AP203' ),
    '1' );
FILE_NAME ('Web Model 49122.STEP',
    '2017-01-31T15:22:01',
    ( '' ),
    ( '' ),
    'SwSTEP 2.0',
    'SolidWorks 2016',
    '' );
FILE_SCHEMA (( 'CONFIG_CONTROL_DESIGN' ));
ENDSEC;

DATA;
#1 = APPROVAL_PERSON_ORGANIZATION ( #42, #51, #118 ) ;
#2 = LOCAL_TIME ( 10, 22, 1.000000000000000000, #106 ) ;
#3 = CALENDAR_DATE ( 2017, 31, 1 ) ;
#4 = DATE_AND_TIME ( #120, #143 ) ;
#5 = CALENDAR_DATE ( 2017, 31, 1 ) ;
#6 = COORDINATED_UNIVERSAL_TIME_OFFSET ( 5, 0, .BEHIND. ) ;
#7 = CARTESIAN_POINT ( 'NONE',  ( 4.500000000000000000, 0.0000000000000000000, -2.000000000000000000 ) ) ;
#8 = APPLICATION_CONTEXT ( 'configuration controlled 3d designs of mechanical parts and assemblies' ) ;
#9 = APPROVAL_ROLE ( '' ) ;
#10 = DIRECTION ( 'NONE',  ( 0.0000000000000000000, 0.0000000000000000000, 1.000000000000000000 ) ) ;
#11 = PERSON_AND_ORGANIZATION_ROLE ( 'design_supplier' ) ;
#12 = LOCAL_TIME ( 10, 22, 1.000000000000000000, #14 ) ;
#13 = LINE ( 'NONE', #154, #157 ) ;
#14 = COORDINATED_UNIVERSAL_TIME_OFFSET ( 5, 0, .BEHIND. ) ;
#15 = MANIFOLD_SOLID_BREP ( 'Extrude1', #137 ) ;
#16 = CYLINDRICAL_SURFACE ( 'NONE', #123, 4.500000000000000000 ) ;
#17 = CC_DESIGN_PERSON_AND_ORGANIZATION_ASSIGNMENT ( #81, #98, ( #66 ) ) ;
#18 = ORGANIZATION ( 'UNSPECIFIED', 'UNSPECIFIED', '' ) ;
#19 = APPROVAL ( #117, 'UNSPECIFIED' ) ;
#20 = CARTESIAN_POINT ( 'NONE',  ( 0.0000000000000000000, 0.0000000000000000000, -2.000000000000000000 ) ) ;
#21 = DIRECTION ( 'NONE',  ( 0.0000000000000000000, 0.0000000000000000000, 1.000000000000000000 ) ) ;
#22 = CARTESIAN_POINT ( 'NONE',  ( 0.0000000000000000000, 0.0000000000000000000, -2.000000000000000000 ) ) ;
#23 = VECTOR ( 'NONE', #76, 1000.000000000000000 ) ;
#24 = CARTESIAN_POINT ( 'NONE',  ( 0.0000000000000000000, 0.0000000000000000000, -2.000000000000000000 ) ) ;
#25 = MECHANICAL_CONTEXT ( 'NONE', #8, 'mechanical' ) ;
#26 = DATE_AND_TIME ( #5, #32 ) ;
#27 =( NAMED_UNIT ( * ) SI_UNIT ( $, .STERADIAN. ) SOLID_ANGLE_UNIT ( ) );
#28 = EDGE_LOOP ( 'NONE', ( #136, #61 ) ) ;
#29 = ADVANCED_FACE ( 'NONE', ( #54 ), #16, .T. ) ;
#30 = SHAPE_DEFINITION_REPRESENTATION ( #58, #146 ) ;
#31 = VERTEX_POINT ( 'NONE', #67 ) ;
#32 = LOCAL_TIME ( 10, 22, 1.000000000000000000, #47 ) ;
#33 = DIRECTION ( 'NONE',  ( 0.0000000000000000000, 0.0000000000000000000, 1.000000000000000000 ) ) ;
#34 = DATE_AND_TIME ( #124, #2 ) ;
#35 = VERTEX_POINT ( 'NONE', #7 ) ;
#36 = FACE_OUTER_BOUND ( 'NONE', #28, .T. ) ;
#37 = DIRECTION ( 'NONE',  ( 1.000000000000000000, 0.0000000000000000000, 0.0000000000000000000 ) ) ;
#38 = APPLICATION_PROTOCOL_DEFINITION ( 'international standard', 'config_control_design', 1994, #69 ) ;
#39 = CARTESIAN_POINT ( 'NONE',  ( 0.0000000000000000000, 0.0000000000000000000, -2.000000000000000000 ) ) ;
#40 = COORDINATED_UNIVERSAL_TIME_OFFSET ( 5, 0, .BEHIND. ) ;
#41 = ORIENTED_EDGE ( 'NONE', *, *, #151, .T. ) ;
#42 = PERSON_AND_ORGANIZATION ( #111, #18 ) ;
#43 = AXIS2_PLACEMENT_3D ( 'NONE', #39, #161, #53 ) ;
#44 = ORIENTED_EDGE ( 'NONE', *, *, #80, .T. ) ;
#45 = APPROVAL_PERSON_ORGANIZATION ( #84, #55, #175 ) ;
#46 = APPROVAL_DATE_TIME ( #4, #55 ) ;
#47 = COORDINATED_UNIVERSAL_TIME_OFFSET ( 5, 0, .BEHIND. ) ;
#48 = CARTESIAN_POINT ( 'NONE',  ( 0.0000000000000000000, 0.0000000000000000000, 0.0000000000000000000 ) ) ;
#49 = CARTESIAN_POINT ( 'NONE',  ( 0.0000000000000000000, 0.0000000000000000000, 0.0000000000000000000 ) ) ;
#50 = PERSON_AND_ORGANIZATION ( #111, #18 ) ;
#51 = APPROVAL ( #77, 'UNSPECIFIED' ) ;
#52 = APPROVAL_STATUS ( 'not_yet_approved' ) ;
#53 = DIRECTION ( 'NONE',  ( 1.000000000000000000, 0.0000000000000000000, -0.0000000000000000000 ) ) ;
#54 = FACE_OUTER_BOUND ( 'NONE', #83, .T. ) ;
#55 = APPROVAL ( #52, 'UNSPECIFIED' ) ;
#56 = EDGE_CURVE ( 'NONE', #35, #131, #13, .T. ) ;
#57 = EDGE_CURVE ( 'NONE', #31, #131, #126, .T. ) ;
#58 = PRODUCT_DEFINITION_SHAPE ( 'NONE', 'NONE',  #171 ) ;
#59 = ORIENTED_EDGE ( 'NONE', *, *, #56, .F. ) ;
#60 = ADVANCED_FACE ( 'NONE', ( #95 ), #93, .T. ) ;
#61 = ORIENTED_EDGE ( 'NONE', *, *, #74, .F. ) ;
#62 = DIRECTION ( 'NONE',  ( 0.0000000000000000000, 0.0000000000000000000, 1.000000000000000000 ) ) ;
#63 = DATE_AND_TIME ( #3, #87 ) ;
#64 = DIRECTION ( 'NONE',  ( 1.000000000000000000, 0.0000000000000000000, 0.0000000000000000000 ) ) ;
#65 = CIRCLE ( 'NONE', #155, 4.500000000000000000 ) ;
#66 = SECURITY_CLASSIFICATION ( '', '', #103 ) ;
#67 = CARTESIAN_POINT ( 'NONE',  ( -4.500000000000000000, 5.510910596163088600E-016, 0.0000000000000000000 ) ) ;
#68 = AXIS2_PLACEMENT_3D ( 'NONE', #24, #163, #101 ) ;
#69 = APPLICATION_CONTEXT ( 'configuration controlled 3d designs of mechanical parts and assemblies' ) ;
#70 = AXIS2_PLACEMENT_3D ( 'NONE', #20, #127, #153 ) ;
#71 = CC_DESIGN_APPROVAL ( #19, ( #66 ) ) ;
#72 = AXIS2_PLACEMENT_3D ( 'NONE', #49, #10, #134 ) ;
#73 = EDGE_LOOP ( 'NONE', ( #44, #174, #91, #59 ) ) ;
#74 = EDGE_CURVE ( 'NONE', #128, #35, #121, .T. ) ;
#75 = PRODUCT ( 'Web Model 49122', 'Web Model 49122', '', ( #25 ) ) ;
#76 = DIRECTION ( 'NONE',  ( 0.0000000000000000000, 0.0000000000000000000, 1.000000000000000000 ) ) ;
#77 = APPROVAL_STATUS ( 'not_yet_approved' ) ;
#78 = EDGE_CURVE ( 'NONE', #128, #31, #85, .T. ) ;
#79 = DATE_TIME_ROLE ( 'creation_date' ) ;
#80 = EDGE_CURVE ( 'NONE', #35, #128, #166, .T. ) ;
#81 = PERSON_AND_ORGANIZATION ( #111, #18 ) ;
#82 = CC_DESIGN_DATE_AND_TIME_ASSIGNMENT ( #34, #158, ( #66 ) ) ;
#83 = EDGE_LOOP ( 'NONE', ( #107, #113, #164, #108 ) ) ;
#84 = PERSON_AND_ORGANIZATION ( #111, #18 ) ;
#85 = LINE ( 'NONE', #133, #23 ) ;
#86 = UNCERTAINTY_MEASURE_WITH_UNIT (LENGTH_MEASURE( 1.000000000000000100E-005 ), #159, 'distance_accuracy_value', 'NONE');
#87 = LOCAL_TIME ( 10, 22, 1.000000000000000000, #40 ) ;
#88 = CC_DESIGN_APPROVAL ( #51, ( #171 ) ) ;
#89 = PERSON_AND_ORGANIZATION ( #111, #18 ) ;
#90 = DIRECTION ( 'NONE',  ( 0.0000000000000000000, 0.0000000000000000000, 1.000000000000000000 ) ) ;
#91 = ORIENTED_EDGE ( 'NONE', *, *, #151, .F. ) ;
#92 = DIRECTION ( 'NONE',  ( 0.0000000000000000000, 0.0000000000000000000, 1.000000000000000000 ) ) ;
#93 = PLANE ( 'NONE',  #94 ) ;
#94 = AXIS2_PLACEMENT_3D ( 'NONE', #130, #62, #138 ) ;
#95 = FACE_OUTER_BOUND ( 'NONE', #102, .T. ) ;
#96 = CARTESIAN_POINT ( 'NONE',  ( 0.0000000000000000000, 0.0000000000000000000, 0.0000000000000000000 ) ) ;
#97 = PERSON_AND_ORGANIZATION_ROLE ( 'creator' ) ;
#98 = PERSON_AND_ORGANIZATION_ROLE ( 'classification_officer' ) ;
#99 = PRODUCT_DEFINITION_FORMATION_WITH_SPECIFIED_SOURCE ( 'ANY', '', #75, .NOT_KNOWN. ) ;
#100 = PERSON_AND_ORGANIZATION ( #111, #18 ) ;
#101 = DIRECTION ( 'NONE',  ( 1.000000000000000000, 0.0000000000000000000, 0.0000000000000000000 ) ) ;
#102 = EDGE_LOOP ( 'NONE', ( #41, #147 ) ) ;
#103 = SECURITY_CLASSIFICATION_LEVEL ( 'unclassified' ) ;
#104 = CARTESIAN_POINT ( 'NONE',  ( -4.500000000000000000, 5.510910596163088600E-016, -2.000000000000000000 ) ) ;
#105 = CC_DESIGN_PERSON_AND_ORGANIZATION_ASSIGNMENT ( #122, #141, ( #75 ) ) ;
#106 = COORDINATED_UNIVERSAL_TIME_OFFSET ( 5, 0, .BEHIND. ) ;
#107 = ORIENTED_EDGE ( 'NONE', *, *, #78, .F. ) ;
#108 = ORIENTED_EDGE ( 'NONE', *, *, #57, .F. ) ;
#109 =( GEOMETRIC_REPRESENTATION_CONTEXT ( 3 ) GLOBAL_UNCERTAINTY_ASSIGNED_CONTEXT ( ( #86 ) ) GLOBAL_UNIT_ASSIGNED_CONTEXT ( ( #159, #172, #27 ) ) REPRESENTATION_CONTEXT ( 'NONE', 'WORKASPACE' ) );
#110 = ADVANCED_FACE ( 'NONE', ( #129 ), #125, .T. ) ;
#111 = PERSON ( 'UNSPECIFIED', 'UNSPECIFIED', 'UNSPECIFIED', ('UNSPECIFIED'), ('UNSPECIFIED'), ('UNSPECIFIED') ) ;
#112 = AXIS2_PLACEMENT_3D ( 'NONE', #48, #21, #37 ) ;
#113 = ORIENTED_EDGE ( 'NONE', *, *, #74, .T. ) ;
#114 = DATE_AND_TIME ( #148, #12 ) ;
#115 = CARTESIAN_POINT ( 'NONE',  ( 4.500000000000000000, 0.0000000000000000000, 0.0000000000000000000 ) ) ;
#116 = DIRECTION ( 'NONE',  ( 1.000000000000000000, 0.0000000000000000000, 0.0000000000000000000 ) ) ;
#117 = APPROVAL_STATUS ( 'not_yet_approved' ) ;
#118 = APPROVAL_ROLE ( '' ) ;
#119 = DIRECTION ( 'NONE',  ( 0.0000000000000000000, 0.0000000000000000000, 1.000000000000000000 ) ) ;
#120 = CALENDAR_DATE ( 2017, 31, 1 ) ;
#121 = CIRCLE ( 'NONE', #162, 4.500000000000000000 ) ;
#122 = PERSON_AND_ORGANIZATION ( #111, #18 ) ;
#123 = AXIS2_PLACEMENT_3D ( 'NONE', #139, #90, #156 ) ;
#124 = CALENDAR_DATE ( 2017, 31, 1 ) ;
#125 = CYLINDRICAL_SURFACE ( 'NONE', #70, 4.500000000000000000 ) ;
#126 = CIRCLE ( 'NONE', #112, 4.500000000000000000 ) ;
#127 = DIRECTION ( 'NONE',  ( 0.0000000000000000000, 0.0000000000000000000, 1.000000000000000000 ) ) ;
#128 = VERTEX_POINT ( 'NONE', #104 ) ;
#129 = FACE_OUTER_BOUND ( 'NONE', #73, .T. ) ;
#130 = CARTESIAN_POINT ( 'NONE',  ( 0.0000000000000000000, 0.0000000000000000000, 0.0000000000000000000 ) ) ;
#131 = VERTEX_POINT ( 'NONE', #115 ) ;
#132 = CC_DESIGN_APPROVAL ( #55, ( #99 ) ) ;
#133 = CARTESIAN_POINT ( 'NONE',  ( -4.500000000000000000, 5.510910596163088600E-016, -2.000000000000000000 ) ) ;
#134 = DIRECTION ( 'NONE',  ( 1.000000000000000000, 0.0000000000000000000, 0.0000000000000000000 ) ) ;
#135 = PLANE ( 'NONE',  #43 ) ;
#136 = ORIENTED_EDGE ( 'NONE', *, *, #80, .F. ) ;
#137 = CLOSED_SHELL ( 'NONE', ( #110, #29, #168, #60 ) ) ;
#138 = DIRECTION ( 'NONE',  ( 1.000000000000000000, 0.0000000000000000000, -0.0000000000000000000 ) ) ;
#139 = CARTESIAN_POINT ( 'NONE',  ( 0.0000000000000000000, 0.0000000000000000000, -2.000000000000000000 ) ) ;
#140 = CC_DESIGN_SECURITY_CLASSIFICATION ( #66, ( #99 ) ) ;
#141 = PERSON_AND_ORGANIZATION_ROLE ( 'design_owner' ) ;
#142 = APPROVAL_PERSON_ORGANIZATION ( #100, #19, #9 ) ;
#143 = LOCAL_TIME ( 10, 22, 1.000000000000000000, #6 ) ;
#144 = CC_DESIGN_PERSON_AND_ORGANIZATION_ASSIGNMENT ( #89, #97, ( #99 ) ) ;
#145 = APPROVAL_DATE_TIME ( #63, #19 ) ;
#146 = ADVANCED_BREP_SHAPE_REPRESENTATION ( 'Web Model 49122', ( #15, #72 ), #109 ) ;
#147 = ORIENTED_EDGE ( 'NONE', *, *, #57, .T. ) ;
#148 = CALENDAR_DATE ( 2017, 31, 1 ) ;
#149 = PRODUCT_RELATED_PRODUCT_CATEGORY ( 'detail', '', ( #75 ) ) ;
#150 = PERSON_AND_ORGANIZATION ( #111, #18 ) ;
#151 = EDGE_CURVE ( 'NONE', #131, #31, #65, .T. ) ;
#152 = CC_DESIGN_PERSON_AND_ORGANIZATION_ASSIGNMENT ( #150, #11, ( #99 ) ) ;
#153 = DIRECTION ( 'NONE',  ( 1.000000000000000000, 0.0000000000000000000, 0.0000000000000000000 ) ) ;
#154 = CARTESIAN_POINT ( 'NONE',  ( 4.500000000000000000, 0.0000000000000000000, -2.000000000000000000 ) ) ;
#155 = AXIS2_PLACEMENT_3D ( 'NONE', #96, #119, #116 ) ;
#156 = DIRECTION ( 'NONE',  ( 1.000000000000000000, 0.0000000000000000000, 0.0000000000000000000 ) ) ;
#157 = VECTOR ( 'NONE', #92, 1000.000000000000000 ) ;
#158 = DATE_TIME_ROLE ( 'classification_date' ) ;
#159 =( LENGTH_UNIT ( ) NAMED_UNIT ( * ) SI_UNIT ( .MILLI., .METRE. ) );
#160 = APPLICATION_PROTOCOL_DEFINITION ( 'international standard', 'config_control_design', 1994, #8 ) ;
#161 = DIRECTION ( 'NONE',  ( 0.0000000000000000000, 0.0000000000000000000, 1.000000000000000000 ) ) ;
#162 = AXIS2_PLACEMENT_3D ( 'NONE', #22, #33, #64 ) ;
#163 = DIRECTION ( 'NONE',  ( 0.0000000000000000000, 0.0000000000000000000, 1.000000000000000000 ) ) ;
#164 = ORIENTED_EDGE ( 'NONE', *, *, #56, .T. ) ;
#165 = CC_DESIGN_DATE_AND_TIME_ASSIGNMENT ( #114, #79, ( #171 ) ) ;
#166 = CIRCLE ( 'NONE', #68, 4.500000000000000000 ) ;
#167 = DESIGN_CONTEXT ( 'detailed design', #69, 'design' ) ;
#168 = ADVANCED_FACE ( 'NONE', ( #36 ), #135, .F. ) ;
#169 = CC_DESIGN_PERSON_AND_ORGANIZATION_ASSIGNMENT ( #50, #173, ( #171 ) ) ;
#170 = APPROVAL_DATE_TIME ( #26, #51 ) ;
#171 = PRODUCT_DEFINITION ( 'UNKNOWN', '', #99, #167 ) ;
#172 =( NAMED_UNIT ( * ) PLANE_ANGLE_UNIT ( ) SI_UNIT ( $, .RADIAN. ) );
#173 = PERSON_AND_ORGANIZATION_ROLE ( 'creator' ) ;
#174 = ORIENTED_EDGE ( 'NONE', *, *, #78, .T. ) ;
#175 = APPROVAL_ROLE ( '' ) ;
ENDSEC;
END-ISO-10303-21;
