ISO-10303-21;
HEADER;
FILE_DESCRIPTION (( 'STEP AP203' ),
    '1' );
FILE_NAME ('Web Model 47776_48570.step',
    '2017-04-26T16:25:55',
    ( '' ),
    ( '' ),
    'SwSTEP 2.0',
    'SolidWorks 2016',
    '' );
FILE_SCHEMA (( 'CONFIG_CONTROL_DESIGN' ));
ENDSEC;

DATA;
#1 = DIRECTION ( 'NONE',  ( 1.000000000000000000, 0.0000000000000000000, 0.0000000000000000000 ) ) ;
#2 = PLANE ( 'NONE',  #67 ) ;
#3 = LINE ( 'NONE', #185, #117 ) ;
#4 = ORGANIZATION ( 'UNSPECIFIED', 'UNSPECIFIED', '' ) ;
#5 = PERSON_AND_ORGANIZATION ( #97, #4 ) ;
#6 = CC_DESIGN_PERSON_AND_ORGANIZATION_ASSIGNMENT ( #308, #195, ( #264 ) ) ;
#7 = ADVANCED_FACE ( 'NONE', ( #168 ), #24, .T. ) ;
#8 = DIRECTION ( 'NONE',  ( 0.7071067811865474600, -0.7071067811865474600, 0.0000000000000000000 ) ) ;
#9 = DIRECTION ( 'NONE',  ( -0.0000000000000000000, 0.0000000000000000000, 1.000000000000000000 ) ) ;
#10 = AXIS2_PLACEMENT_3D ( 'NONE', #272, #65, #196 ) ;
#11 = VERTEX_POINT ( 'NONE', #223 ) ;
#12 = DIRECTION ( 'NONE',  ( 0.0000000000000000000, -0.0000000000000000000, 1.000000000000000000 ) ) ;
#13 = APPROVAL_DATE_TIME ( #283, #74 ) ;
#14 = LINE ( 'NONE', #159, #275 ) ;
#15 = AXIS2_PLACEMENT_3D ( 'NONE', #76, #152, #60 ) ;
#16 = PLANE ( 'NONE',  #50 ) ;
#17 = VECTOR ( 'NONE', #257, 1000.000000000000000 ) ;
#18 = MECHANICAL_CONTEXT ( 'NONE', #211, 'mechanical' ) ;
#19 = LINE ( 'NONE', #49, #302 ) ;
#20 = LINE ( 'NONE', #177, #203 ) ;
#21 = ORIENTED_EDGE ( 'NONE', *, *, #193, .F. ) ;
#22 = SECURITY_CLASSIFICATION ( '', '', #244 ) ;
#23 = AXIS2_PLACEMENT_3D ( 'NONE', #201, #173, #1 ) ;
#24 = PLANE ( 'NONE',  #212 ) ;
#25 = EDGE_LOOP ( 'NONE', ( #116, #42, #161 ) ) ;
#26 = VERTEX_POINT ( 'NONE', #277 ) ;
#27 = DIRECTION ( 'NONE',  ( 0.0000000000000000000, 1.000000000000000000, -0.0000000000000000000 ) ) ;
#28 = VERTEX_POINT ( 'NONE', #79 ) ;
#29 = VECTOR ( 'NONE', #213, 1000.000000000000000 ) ;
#30 = EDGE_CURVE ( 'NONE', #278, #26, #155, .T. ) ;
#31 = CARTESIAN_POINT ( 'NONE',  ( 0.0000000000000000000, -2.500000000000000400, -2.500000000000000000 ) ) ;
#32 = DIRECTION ( 'NONE',  ( -1.000000000000000000, 0.0000000000000000000, 0.0000000000000000000 ) ) ;
#33 = EDGE_LOOP ( 'NONE', ( #269, #270, #137, #301 ) ) ;
#34 = APPROVAL_ROLE ( '' ) ;
#35 = LINE ( 'NONE', #146, #190 ) ;
#36 = PLANE ( 'NONE',  #169 ) ;
#37 = PLANE ( 'NONE',  #176 ) ;
#38 =( NAMED_UNIT ( * ) SI_UNIT ( $, .STERADIAN. ) SOLID_ANGLE_UNIT ( ) );
#39 = PERSON_AND_ORGANIZATION_ROLE ( 'creator' ) ;
#40 = PLANE ( 'NONE',  #15 ) ;
#41 = CC_DESIGN_PERSON_AND_ORGANIZATION_ASSIGNMENT ( #286, #123, ( #22 ) ) ;
#42 = ORIENTED_EDGE ( 'NONE', *, *, #317, .T. ) ;
#43 = LINE ( 'NONE', #313, #255 ) ;
#44 = DATE_AND_TIME ( #285, #141 ) ;
#45 = VECTOR ( 'NONE', #27, 1000.000000000000000 ) ;
#46 = CARTESIAN_POINT ( 'NONE',  ( -0.0000000000000000000, 2.500000000000000400, -2.500000000000000000 ) ) ;
#47 = APPROVAL_STATUS ( 'not_yet_approved' ) ;
#48 = EDGE_LOOP ( 'NONE', ( #256, #120, #175 ) ) ;
#49 = CARTESIAN_POINT ( 'NONE',  ( 2.499999999999998700, 2.500000000000000400, 2.500000000000000000 ) ) ;
#50 = AXIS2_PLACEMENT_3D ( 'NONE', #118, #59, #273 ) ;
#51 = CARTESIAN_POINT ( 'NONE',  ( -2.500000000000002200, 2.500000000000000400, 2.500000000000000000 ) ) ;
#52 = CARTESIAN_POINT ( 'NONE',  ( 2.499999999999998700, -2.500000000000000400, 2.500000000000000000 ) ) ;
#53 = EDGE_CURVE ( 'NONE', #295, #217, #14, .T. ) ;
#54 = CC_DESIGN_DATE_AND_TIME_ASSIGNMENT ( #72, #265, ( #22 ) ) ;
#55 = PERSON_AND_ORGANIZATION ( #97, #4 ) ;
#56 = DIRECTION ( 'NONE',  ( 0.0000000000000000000, 0.0000000000000000000, 1.000000000000000000 ) ) ;
#57 = VERTEX_POINT ( 'NONE', #108 ) ;
#58 = PERSON_AND_ORGANIZATION ( #97, #4 ) ;
#59 = DIRECTION ( 'NONE',  ( -1.000000000000000000, 0.0000000000000000000, 0.0000000000000000000 ) ) ;
#60 = DIRECTION ( 'NONE',  ( -0.7071067811865474600, 0.7071067811865474600, 0.0000000000000000000 ) ) ;
#61 = ORIENTED_EDGE ( 'NONE', *, *, #53, .F. ) ;
#62 = ORIENTED_EDGE ( 'NONE', *, *, #53, .T. ) ;
#63 = FACE_OUTER_BOUND ( 'NONE', #172, .T. ) ;
#64 = EDGE_CURVE ( 'NONE', #57, #237, #179, .T. ) ;
#65 = DIRECTION ( 'NONE',  ( 0.7071067811865475700, 0.7071067811865475700, -0.0000000000000000000 ) ) ;
#66 = PLANE ( 'NONE',  #10 ) ;
#67 = AXIS2_PLACEMENT_3D ( 'NONE', #202, #32, #56 ) ;
#68 = DIRECTION ( 'NONE',  ( 0.0000000000000000000, 0.0000000000000000000, 1.000000000000000000 ) ) ;
#69 = MANIFOLD_SOLID_BREP ( 'Boss-Extrude3', #140 ) ;
#70 = CARTESIAN_POINT ( 'NONE',  ( -2.500000000000002200, -2.500000000000000400, 2.500000000000000000 ) ) ;
#71 = AXIS2_PLACEMENT_3D ( 'NONE', #294, #266, #260 ) ;
#72 = DATE_AND_TIME ( #158, #312 ) ;
#73 = PERSON_AND_ORGANIZATION_ROLE ( 'creator' ) ;
#74 = APPROVAL ( #47, 'UNSPECIFIED' ) ;
#75 = CARTESIAN_POINT ( 'NONE',  ( -2.500000000000002200, 0.0000000000000000000, -2.500000000000000000 ) ) ;
#76 = CARTESIAN_POINT ( 'NONE',  ( -9.199760500100243800E-016, -9.199760500100243800E-016, 2.500000000000000000 ) ) ;
#77 = DIRECTION ( 'NONE',  ( 0.7071067811865474600, -0.7071067811865474600, 0.0000000000000000000 ) ) ;
#78 = FACE_OUTER_BOUND ( 'NONE', #292, .T. ) ;
#79 = CARTESIAN_POINT ( 'NONE',  ( 2.499999999999998700, -2.500000000000000400, 2.500000000000000000 ) ) ;
#80 = EDGE_LOOP ( 'NONE', ( #246, #183, #61, #305 ) ) ;
#81 = UNCERTAINTY_MEASURE_WITH_UNIT (LENGTH_MEASURE( 1.000000000000000100E-005 ), #258, 'distance_accuracy_value', 'NONE');
#82 = CARTESIAN_POINT ( 'NONE',  ( 2.499999999999998700, -2.500000000000000400, 2.500000000000000000 ) ) ;
#83 = ADVANCED_FACE ( 'NONE', ( #149 ), #206, .F. ) ;
#84 = LINE ( 'NONE', #153, #45 ) ;
#85 = PLANE ( 'NONE',  #71 ) ;
#86 = DIRECTION ( 'NONE',  ( 1.000000000000000000, 0.0000000000000000000, 0.0000000000000000000 ) ) ;
#87 = PRODUCT_DEFINITION_SHAPE ( 'NONE', 'NONE',  #178 ) ;
#88 = PERSON_AND_ORGANIZATION_ROLE ( 'design_owner' ) ;
#89 = FACE_OUTER_BOUND ( 'NONE', #215, .T. ) ;
#90 = LINE ( 'NONE', #98, #316 ) ;
#91 = EDGE_CURVE ( 'NONE', #295, #104, #138, .T. ) ;
#92 = CC_DESIGN_APPROVAL ( #74, ( #22 ) ) ;
#93 = LOCAL_TIME ( 12, 25, 55.00000000000000000, #232 ) ;
#94 = ADVANCED_FACE ( 'NONE', ( #288 ), #85, .T. ) ;
#95 = ORIENTED_EDGE ( 'NONE', *, *, #262, .T. ) ;
#96 = VERTEX_POINT ( 'NONE', #162 ) ;
#97 = PERSON ( 'UNSPECIFIED', 'UNSPECIFIED', 'UNSPECIFIED', ('UNSPECIFIED'), ('UNSPECIFIED'), ('UNSPECIFIED') ) ;
#98 = CARTESIAN_POINT ( 'NONE',  ( -9.199760500100243800E-016, -9.199760500100243800E-016, -2.500000000000000000 ) ) ;
#99 = APPROVAL_STATUS ( 'not_yet_approved' ) ;
#100 = ORIENTED_EDGE ( 'NONE', *, *, #91, .F. ) ;
#101 = CARTESIAN_POINT ( 'NONE',  ( -9.199760500100243800E-016, -9.199760500100243800E-016, -2.500000000000000000 ) ) ;
#102 = ADVANCED_FACE ( 'NONE', ( #221 ), #36, .T. ) ;
#103 = EDGE_LOOP ( 'NONE', ( #208, #234, #220, #143 ) ) ;
#104 = VERTEX_POINT ( 'NONE', #226 ) ;
#105 = EDGE_CURVE ( 'NONE', #28, #11, #35, .T. ) ;
#106 = ORIENTED_EDGE ( 'NONE', *, *, #271, .T. ) ;
#107 = CC_DESIGN_SECURITY_CLASSIFICATION ( #22, ( #264 ) ) ;
#108 = CARTESIAN_POINT ( 'NONE',  ( -2.500000000000002200, -2.500000000000000400, 2.500000000000000000 ) ) ;
#109 = CALENDAR_DATE ( 2017, 26, 4 ) ;
#110 = EDGE_CURVE ( 'NONE', #217, #104, #84, .T. ) ;
#111 = DATE_AND_TIME ( #249, #204 ) ;
#112 = CARTESIAN_POINT ( 'NONE',  ( -2.500000000000002200, 2.500000000000000400, 2.500000000000000000 ) ) ;
#113 = DIRECTION ( 'NONE',  ( 1.000000000000000000, 0.0000000000000000000, 0.0000000000000000000 ) ) ;
#114 = VECTOR ( 'NONE', #314, 1000.000000000000000 ) ;
#115 = VERTEX_POINT ( 'NONE', #287 ) ;
#116 = ORIENTED_EDGE ( 'NONE', *, *, #300, .T. ) ;
#117 = VECTOR ( 'NONE', #113, 1000.000000000000000 ) ;
#118 = CARTESIAN_POINT ( 'NONE',  ( -2.500000000000002200, 0.0000000000000000000, 2.500000000000000000 ) ) ;
#119 = EDGE_CURVE ( 'NONE', #115, #170, #290, .T. ) ;
#120 = ORIENTED_EDGE ( 'NONE', *, *, #119, .T. ) ;
#121 = DIRECTION ( 'NONE',  ( 0.0000000000000000000, 1.000000000000000000, 0.0000000000000000000 ) ) ;
#122 = PRODUCT_RELATED_PRODUCT_CATEGORY ( 'detail', '', ( #150 ) ) ;
#123 = PERSON_AND_ORGANIZATION_ROLE ( 'classification_officer' ) ;
#124 = CARTESIAN_POINT ( 'NONE',  ( 2.499999999999998700, 2.500000000000000400, -2.500000000000000000 ) ) ;
#125 = EDGE_CURVE ( 'NONE', #115, #96, #90, .T. ) ;
#126 = CARTESIAN_POINT ( 'NONE',  ( 2.499999999999998700, 0.0000000000000000000, -2.500000000000000000 ) ) ;
#127 = DIRECTION ( 'NONE',  ( 0.7071067811865474600, -0.7071067811865474600, 0.0000000000000000000 ) ) ;
#128 = VECTOR ( 'NONE', #321, 1000.000000000000000 ) ;
#129 = APPLICATION_CONTEXT ( 'configuration controlled 3d designs of mechanical parts and assemblies' ) ;
#130 = FACE_OUTER_BOUND ( 'NONE', #25, .T. ) ;
#131 = APPLICATION_PROTOCOL_DEFINITION ( 'international standard', 'config_control_design', 1994, #129 ) ;
#132 = APPROVAL_ROLE ( '' ) ;
#133 = VECTOR ( 'NONE', #299, 1000.000000000000000 ) ;
#134 = DIRECTION ( 'NONE',  ( -0.0000000000000000000, -0.0000000000000000000, -1.000000000000000000 ) ) ;
#135 = EDGE_CURVE ( 'NONE', #295, #115, #20, .T. ) ;
#136 = VECTOR ( 'NONE', #151, 1000.000000000000100 ) ;
#137 = ORIENTED_EDGE ( 'NONE', *, *, #276, .T. ) ;
#138 = LINE ( 'NONE', #222, #29 ) ;
#139 = SHAPE_DEFINITION_REPRESENTATION ( #87, #229 ) ;
#140 = CLOSED_SHELL ( 'NONE', ( #207, #279, #102, #94, #83 ) ) ;
#141 = LOCAL_TIME ( 12, 25, 55.00000000000000000, #199 ) ;
#142 = COORDINATED_UNIVERSAL_TIME_OFFSET ( 5, 0, .BEHIND. ) ;
#143 = ORIENTED_EDGE ( 'NONE', *, *, #289, .T. ) ;
#144 = AXIS2_PLACEMENT_3D ( 'NONE', #235, #68, #86 ) ;
#145 = PLANE ( 'NONE',  #23 ) ;
#146 = CARTESIAN_POINT ( 'NONE',  ( 2.499999999999998700, -2.500000000000000400, 2.500000000000000000 ) ) ;
#147 = EDGE_LOOP ( 'NONE', ( #245, #231, #21 ) ) ;
#148 = DIRECTION ( 'NONE',  ( 1.000000000000000000, 0.0000000000000000000, 0.0000000000000000000 ) ) ;
#149 = FACE_OUTER_BOUND ( 'NONE', #48, .T. ) ;
#150 = PRODUCT ( 'Web Model 47776_48570', 'Web Model 47776_48570', '', ( #18 ) ) ;
#151 = DIRECTION ( 'NONE',  ( 0.7071067811865474600, -0.7071067811865474600, 0.0000000000000000000 ) ) ;
#152 = DIRECTION ( 'NONE',  ( 0.7071067811865475700, 0.7071067811865475700, -0.0000000000000000000 ) ) ;
#153 = CARTESIAN_POINT ( 'NONE',  ( 2.499999999999998700, 0.0000000000000000000, 2.500000000000000000 ) ) ;
#154 = CARTESIAN_POINT ( 'NONE',  ( 0.0000000000000000000, 2.500000000000000400, 2.500000000000000000 ) ) ;
#155 = LINE ( 'NONE', #297, #240 ) ;
#156 = FACE_OUTER_BOUND ( 'NONE', #33, .T. ) ;
#157 = DIRECTION ( 'NONE',  ( -0.0000000000000000000, -0.0000000000000000000, -1.000000000000000000 ) ) ;
#158 = CALENDAR_DATE ( 2017, 26, 4 ) ;
#159 = CARTESIAN_POINT ( 'NONE',  ( -9.199760500100243800E-016, -9.199760500100243800E-016, 2.500000000000000000 ) ) ;
#160 = APPROVAL_DATE_TIME ( #267, #280 ) ;
#161 = ORIENTED_EDGE ( 'NONE', *, *, #262, .F. ) ;
#162 = CARTESIAN_POINT ( 'NONE',  ( 2.499999999999998700, -2.500000000000000400, -2.500000000000000000 ) ) ;
#163 = CC_DESIGN_PERSON_AND_ORGANIZATION_ASSIGNMENT ( #274, #88, ( #150 ) ) ;
#164 = ORIENTED_EDGE ( 'NONE', *, *, #105, .F. ) ;
#165 = ORIENTED_EDGE ( 'NONE', *, *, #105, .T. ) ;
#166 = VECTOR ( 'NONE', #236, 1000.000000000000000 ) ;
#167 = CLOSED_SHELL ( 'NONE', ( #252, #182, #209, #7, #282 ) ) ;
#168 = FACE_OUTER_BOUND ( 'NONE', #147, .T. ) ;
#169 = AXIS2_PLACEMENT_3D ( 'NONE', #154, #261, #307 ) ;
#170 = VERTEX_POINT ( 'NONE', #124 ) ;
#171 = MANIFOLD_SOLID_BREP ( 'Boss-Extrude2', #167 ) ;
#172 = EDGE_LOOP ( 'NONE', ( #304, #318, #198, #165 ) ) ;
#173 = DIRECTION ( 'NONE',  ( -0.0000000000000000000, 0.0000000000000000000, 1.000000000000000000 ) ) ;
#174 = FACE_OUTER_BOUND ( 'NONE', #80, .T. ) ;
#175 = ORIENTED_EDGE ( 'NONE', *, *, #271, .F. ) ;
#176 = AXIS2_PLACEMENT_3D ( 'NONE', #239, #121, #12 ) ;
#177 = CARTESIAN_POINT ( 'NONE',  ( -2.500000000000002200, 2.500000000000000400, 2.500000000000000000 ) ) ;
#178 = PRODUCT_DEFINITION ( 'UNKNOWN', '', #264, #247 ) ;
#179 = LINE ( 'NONE', #70, #233 ) ;
#180 = LINE ( 'NONE', #192, #17 ) ;
#181 =( GEOMETRIC_REPRESENTATION_CONTEXT ( 3 ) GLOBAL_UNCERTAINTY_ASSIGNED_CONTEXT ( ( #81 ) ) GLOBAL_UNIT_ASSIGNED_CONTEXT ( ( #258, #254, #38 ) ) REPRESENTATION_CONTEXT ( 'NONE', 'WORKASPACE' ) );
#182 = ADVANCED_FACE ( 'NONE', ( #78 ), #37, .F. ) ;
#183 = ORIENTED_EDGE ( 'NONE', *, *, #225, .F. ) ;
#184 = COORDINATED_UNIVERSAL_TIME_OFFSET ( 5, 0, .BEHIND. ) ;
#185 = CARTESIAN_POINT ( 'NONE',  ( 0.0000000000000000000, -2.500000000000000400, 2.500000000000000000 ) ) ;
#186 = DIRECTION ( 'NONE',  ( -0.0000000000000000000, -0.0000000000000000000, -1.000000000000000000 ) ) ;
#187 = EDGE_CURVE ( 'NONE', #57, #28, #3, .T. ) ;
#188 = COORDINATED_UNIVERSAL_TIME_OFFSET ( 5, 0, .BEHIND. ) ;
#189 = DATE_TIME_ROLE ( 'creation_date' ) ;
#190 = VECTOR ( 'NONE', #200, 1000.000000000000000 ) ;
#191 = LINE ( 'NONE', #101, #136 ) ;
#192 = CARTESIAN_POINT ( 'NONE',  ( -2.500000000000002200, 0.0000000000000000000, 2.500000000000000000 ) ) ;
#193 = EDGE_CURVE ( 'NONE', #278, #28, #43, .T. ) ;
#194 = APPROVAL ( #99, 'UNSPECIFIED' ) ;
#195 = PERSON_AND_ORGANIZATION_ROLE ( 'design_supplier' ) ;
#196 = DIRECTION ( 'NONE',  ( -0.7071067811865474600, 0.7071067811865474600, 0.0000000000000000000 ) ) ;
#197 = LINE ( 'NONE', #52, #133 ) ;
#198 = ORIENTED_EDGE ( 'NONE', *, *, #193, .T. ) ;
#199 = COORDINATED_UNIVERSAL_TIME_OFFSET ( 5, 0, .BEHIND. ) ;
#200 = DIRECTION ( 'NONE',  ( -0.0000000000000000000, -0.0000000000000000000, -1.000000000000000000 ) ) ;
#201 = CARTESIAN_POINT ( 'NONE',  ( 0.0000000000000000000, 0.0000000000000000000, -2.500000000000000000 ) ) ;
#202 = CARTESIAN_POINT ( 'NONE',  ( 2.499999999999998700, 0.0000000000000000000, 2.500000000000000000 ) ) ;
#203 = VECTOR ( 'NONE', #248, 1000.000000000000000 ) ;
#204 = LOCAL_TIME ( 12, 25, 55.00000000000000000, #184 ) ;
#205 = DIRECTION ( 'NONE',  ( 1.000000000000000000, 0.0000000000000000000, 0.0000000000000000000 ) ) ;
#206 = PLANE ( 'NONE',  #311 ) ;
#207 = ADVANCED_FACE ( 'NONE', ( #174 ), #40, .F. ) ;
#208 = ORIENTED_EDGE ( 'NONE', *, *, #119, .F. ) ;
#209 = ADVANCED_FACE ( 'NONE', ( #63 ), #66, .T. ) ;
#210 = APPROVAL_PERSON_ORGANIZATION ( #293, #74, #34 ) ;
#211 = APPLICATION_CONTEXT ( 'configuration controlled 3d designs of mechanical parts and assemblies' ) ;
#212 = AXIS2_PLACEMENT_3D ( 'NONE', #315, #9, #148 ) ;
#213 = DIRECTION ( 'NONE',  ( 1.000000000000000000, 0.0000000000000000000, 0.0000000000000000000 ) ) ;
#214 = ORIENTED_EDGE ( 'NONE', *, *, #110, .T. ) ;
#215 = EDGE_LOOP ( 'NONE', ( #106, #230, #227, #309 ) ) ;
#216 = CC_DESIGN_APPROVAL ( #194, ( #178 ) ) ;
#217 = VERTEX_POINT ( 'NONE', #82 ) ;
#218 = LINE ( 'NONE', #75, #114 ) ;
#219 = APPLICATION_PROTOCOL_DEFINITION ( 'international standard', 'config_control_design', 1994, #211 ) ;
#220 = ORIENTED_EDGE ( 'NONE', *, *, #91, .T. ) ;
#221 = FACE_OUTER_BOUND ( 'NONE', #103, .T. ) ;
#222 = CARTESIAN_POINT ( 'NONE',  ( 0.0000000000000000000, 2.500000000000000400, 2.500000000000000000 ) ) ;
#223 = CARTESIAN_POINT ( 'NONE',  ( 2.499999999999998700, -2.500000000000000400, -2.500000000000000000 ) ) ;
#224 = APPROVAL_STATUS ( 'not_yet_approved' ) ;
#225 = EDGE_CURVE ( 'NONE', #217, #96, #197, .T. ) ;
#226 = CARTESIAN_POINT ( 'NONE',  ( 2.499999999999998700, 2.500000000000000400, 2.500000000000000000 ) ) ;
#227 = ORIENTED_EDGE ( 'NONE', *, *, #110, .F. ) ;
#228 = CC_DESIGN_PERSON_AND_ORGANIZATION_ASSIGNMENT ( #5, #39, ( #178 ) ) ;
#229 = ADVANCED_BREP_SHAPE_REPRESENTATION ( 'Web Model 47776_48570', ( #171, #69, #144 ), #181 ) ;
#230 = ORIENTED_EDGE ( 'NONE', *, *, #289, .F. ) ;
#231 = ORIENTED_EDGE ( 'NONE', *, *, #187, .T. ) ;
#232 = COORDINATED_UNIVERSAL_TIME_OFFSET ( 5, 0, .BEHIND. ) ;
#233 = VECTOR ( 'NONE', #134, 1000.000000000000000 ) ;
#234 = ORIENTED_EDGE ( 'NONE', *, *, #135, .F. ) ;
#235 = CARTESIAN_POINT ( 'NONE',  ( 0.0000000000000000000, 0.0000000000000000000, 0.0000000000000000000 ) ) ;
#236 = DIRECTION ( 'NONE',  ( 0.0000000000000000000, 1.000000000000000000, -0.0000000000000000000 ) ) ;
#237 = VERTEX_POINT ( 'NONE', #253 ) ;
#238 = ORIENTED_EDGE ( 'NONE', *, *, #187, .F. ) ;
#239 = CARTESIAN_POINT ( 'NONE',  ( 0.0000000000000000000, -2.500000000000000400, 2.500000000000000000 ) ) ;
#240 = VECTOR ( 'NONE', #157, 1000.000000000000000 ) ;
#241 = APPROVAL_PERSON_ORGANIZATION ( #58, #194, #132 ) ;
#242 = DIRECTION ( 'NONE',  ( 1.000000000000000000, 0.0000000000000000000, 0.0000000000000000000 ) ) ;
#243 = CC_DESIGN_DATE_AND_TIME_ASSIGNMENT ( #44, #189, ( #178 ) ) ;
#244 = SECURITY_CLASSIFICATION_LEVEL ( 'unclassified' ) ;
#245 = ORIENTED_EDGE ( 'NONE', *, *, #276, .F. ) ;
#246 = ORIENTED_EDGE ( 'NONE', *, *, #125, .T. ) ;
#247 = DESIGN_CONTEXT ( 'detailed design', #129, 'design' ) ;
#248 = DIRECTION ( 'NONE',  ( -0.0000000000000000000, -0.0000000000000000000, -1.000000000000000000 ) ) ;
#249 = CALENDAR_DATE ( 2017, 26, 4 ) ;
#250 = APPROVAL_PERSON_ORGANIZATION ( #251, #280, #306 ) ;
#251 = PERSON_AND_ORGANIZATION ( #97, #4 ) ;
#252 = ADVANCED_FACE ( 'NONE', ( #156 ), #16, .T. ) ;
#253 = CARTESIAN_POINT ( 'NONE',  ( -2.500000000000002200, -2.500000000000000400, -2.500000000000000000 ) ) ;
#254 =( NAMED_UNIT ( * ) PLANE_ANGLE_UNIT ( ) SI_UNIT ( $, .RADIAN. ) );
#255 = VECTOR ( 'NONE', #77, 1000.000000000000100 ) ;
#256 = ORIENTED_EDGE ( 'NONE', *, *, #125, .F. ) ;
#257 = DIRECTION ( 'NONE',  ( 0.0000000000000000000, 1.000000000000000000, -0.0000000000000000000 ) ) ;
#258 =( LENGTH_UNIT ( ) NAMED_UNIT ( * ) SI_UNIT ( .MILLI., .METRE. ) );
#259 = LOCAL_TIME ( 12, 25, 55.00000000000000000, #188 ) ;
#260 = DIRECTION ( 'NONE',  ( 1.000000000000000000, 0.0000000000000000000, 0.0000000000000000000 ) ) ;
#261 = DIRECTION ( 'NONE',  ( 0.0000000000000000000, 1.000000000000000000, 0.0000000000000000000 ) ) ;
#262 = EDGE_CURVE ( 'NONE', #237, #11, #320, .T. ) ;
#263 = VECTOR ( 'NONE', #242, 1000.000000000000000 ) ;
#264 = PRODUCT_DEFINITION_FORMATION_WITH_SPECIFIED_SOURCE ( 'ANY', '', #150, .NOT_KNOWN. ) ;
#265 = DATE_TIME_ROLE ( 'classification_date' ) ;
#266 = DIRECTION ( 'NONE',  ( -0.0000000000000000000, 0.0000000000000000000, 1.000000000000000000 ) ) ;
#267 = DATE_AND_TIME ( #284, #259 ) ;
#268 = ORIENTED_EDGE ( 'NONE', *, *, #64, .T. ) ;
#269 = ORIENTED_EDGE ( 'NONE', *, *, #300, .F. ) ;
#270 = ORIENTED_EDGE ( 'NONE', *, *, #64, .F. ) ;
#271 = EDGE_CURVE ( 'NONE', #96, #170, #296, .T. ) ;
#272 = CARTESIAN_POINT ( 'NONE',  ( -9.199760500100243800E-016, -9.199760500100243800E-016, 2.500000000000000000 ) ) ;
#273 = DIRECTION ( 'NONE',  ( 0.0000000000000000000, 0.0000000000000000000, 1.000000000000000000 ) ) ;
#274 = PERSON_AND_ORGANIZATION ( #97, #4 ) ;
#275 = VECTOR ( 'NONE', #127, 1000.000000000000100 ) ;
#276 = EDGE_CURVE ( 'NONE', #57, #278, #180, .T. ) ;
#277 = CARTESIAN_POINT ( 'NONE',  ( -2.500000000000002200, 2.500000000000000400, -2.500000000000000000 ) ) ;
#278 = VERTEX_POINT ( 'NONE', #112 ) ;
#279 = ADVANCED_FACE ( 'NONE', ( #89 ), #2, .F. ) ;
#280 = APPROVAL ( #224, 'UNSPECIFIED' ) ;
#281 = DIRECTION ( 'NONE',  ( -0.0000000000000000000, 0.0000000000000000000, 1.000000000000000000 ) ) ;
#282 = ADVANCED_FACE ( 'NONE', ( #130 ), #145, .F. ) ;
#283 = DATE_AND_TIME ( #109, #93 ) ;
#284 = CALENDAR_DATE ( 2017, 26, 4 ) ;
#285 = CALENDAR_DATE ( 2017, 26, 4 ) ;
#286 = PERSON_AND_ORGANIZATION ( #97, #4 ) ;
#287 = CARTESIAN_POINT ( 'NONE',  ( -2.500000000000002200, 2.500000000000000400, -2.500000000000000000 ) ) ;
#288 = FACE_OUTER_BOUND ( 'NONE', #303, .T. ) ;
#289 = EDGE_CURVE ( 'NONE', #104, #170, #19, .T. ) ;
#290 = LINE ( 'NONE', #46, #263 ) ;
#291 = CC_DESIGN_APPROVAL ( #280, ( #264 ) ) ;
#292 = EDGE_LOOP ( 'NONE', ( #95, #164, #238, #268 ) ) ;
#293 = PERSON_AND_ORGANIZATION ( #97, #4 ) ;
#294 = CARTESIAN_POINT ( 'NONE',  ( 0.0000000000000000000, 0.0000000000000000000, 2.500000000000000000 ) ) ;
#295 = VERTEX_POINT ( 'NONE', #51 ) ;
#296 = LINE ( 'NONE', #126, #166 ) ;
#297 = CARTESIAN_POINT ( 'NONE',  ( -2.500000000000002200, 2.500000000000000400, 2.500000000000000000 ) ) ;
#298 = APPROVAL_DATE_TIME ( #111, #194 ) ;
#299 = DIRECTION ( 'NONE',  ( -0.0000000000000000000, -0.0000000000000000000, -1.000000000000000000 ) ) ;
#300 = EDGE_CURVE ( 'NONE', #237, #26, #218, .T. ) ;
#301 = ORIENTED_EDGE ( 'NONE', *, *, #30, .T. ) ;
#302 = VECTOR ( 'NONE', #186, 1000.000000000000000 ) ;
#303 = EDGE_LOOP ( 'NONE', ( #62, #214, #100 ) ) ;
#304 = ORIENTED_EDGE ( 'NONE', *, *, #317, .F. ) ;
#305 = ORIENTED_EDGE ( 'NONE', *, *, #135, .T. ) ;
#306 = APPROVAL_ROLE ( '' ) ;
#307 = DIRECTION ( 'NONE',  ( 0.0000000000000000000, -0.0000000000000000000, 1.000000000000000000 ) ) ;
#308 = PERSON_AND_ORGANIZATION ( #97, #4 ) ;
#309 = ORIENTED_EDGE ( 'NONE', *, *, #225, .T. ) ;
#310 = CC_DESIGN_PERSON_AND_ORGANIZATION_ASSIGNMENT ( #55, #73, ( #264 ) ) ;
#311 = AXIS2_PLACEMENT_3D ( 'NONE', #319, #281, #205 ) ;
#312 = LOCAL_TIME ( 12, 25, 55.00000000000000000, #142 ) ;
#313 = CARTESIAN_POINT ( 'NONE',  ( -9.199760500100243800E-016, -9.199760500100243800E-016, 2.500000000000000000 ) ) ;
#314 = DIRECTION ( 'NONE',  ( 0.0000000000000000000, 1.000000000000000000, -0.0000000000000000000 ) ) ;
#315 = CARTESIAN_POINT ( 'NONE',  ( 0.0000000000000000000, 0.0000000000000000000, 2.500000000000000000 ) ) ;
#316 = VECTOR ( 'NONE', #8, 1000.000000000000100 ) ;
#317 = EDGE_CURVE ( 'NONE', #26, #11, #191, .T. ) ;
#318 = ORIENTED_EDGE ( 'NONE', *, *, #30, .F. ) ;
#319 = CARTESIAN_POINT ( 'NONE',  ( 0.0000000000000000000, 0.0000000000000000000, -2.500000000000000000 ) ) ;
#320 = LINE ( 'NONE', #31, #128 ) ;
#321 = DIRECTION ( 'NONE',  ( 1.000000000000000000, 0.0000000000000000000, 0.0000000000000000000 ) ) ;
ENDSEC;
END-ISO-10303-21;
